  0
SECTION
  2
ENTITIES
  0
LINE
  8
0
 10
0
 20
61.25361
 30
0.0
 11
0
 21
1.563613
 31
0.0
  0
LINE
  8
0
 10
0
 20
1.563613
 30
0.0
 11
254.9571
 21
1.563613
 31
0.0
  0
LINE
  8
0
 10
254.9571
 20
1.563613
 30
0.0
 11
509.9142
 21
1.563613
 31
0.0
  0
LINE
  8
0
 10
509.9142
 20
1.563613
 30
0.0
 11
764.8712
 21
1.563613
 31
0.0
  0
LINE
  8
0
 10
764.8712
 20
1.563613
 30
0.0
 11
764.8712
 21
-58.12638
 31
0.0
  0
LINE
  8
0
 10
764.8712
 20
-58.12638
 30
0.0
 11
509.9142
 21
-58.12638
 31
0.0
  0
LINE
  8
0
 10
509.9142
 20
-58.12638
 30
0.0
 11
254.9571
 21
-58.12638
 31
0.0
  0
LINE
  8
0
 10
254.9571
 20
-58.12638
 30
0.0
 11
0
 21
-58.12638
 31
0.0
  0
CIRCLE
  8
0
 10
1000
 20
7000
 30
0.0
 40
100
  0
CIRCLE
  8
0
 10
2500
 20
7000
 30
0.0
 40
100
  0
CIRCLE
  8
0
 10
4000
 20
7000
 30
0.0
 40
100
  0
CIRCLE
  8
0
 10
100
 20
100
 30
0.0
 40
132
  0
CIRCLE
  8
0
 10
200
 20
200
 30
0.0
 40
181
  0
CIRCLE
  8
0
 10
300
 20
300
 30
0.0
 40
200
  0
CIRCLE
  8
0
 10
350
 20
350
 30
0.0
 40
204
  0
CIRCLE
  8
0
 10
360
 20
360
 30
0.0
 40
204
  0
CIRCLE
  8
0
 10
370
 20
370
 30
0.0
 40
200
  0
ENDSEC
  0
EOF
