  0
SECTION
  2
ENTITIES
  0
ARC
  8
0
 10
-309.4669
 20
769.9678
 30
0.0
 40
337.5791
 50
311.7181
 51
358.6466
  0
LINE
  8
0
 10
-84.81943
 20
517.9892
 30
0.0
 11
-383.9999
 21
243.9999
 31
0.0
  0
ARC
  8
0
 10
-159.3529
 20
-7.979039
 30
0.0
 40
337.5791
 50
131.718
 51
178.6465
  0
ARC
  8
0
 10
-159.3528
 20
7.968145
 30
0.0
 40
337.5791
 50
181.3532
 51
228.2817
  0
LINE
  8
0
 10
-384.001
 20
-244.0098
 30
0.0
 11
-84.82172
 21
-518.0004
 31
0.0
  0
ARC
  8
0
 10
-309.4703
 20
-769.978
 30
0.0
 40
337.5791
 50
1.353208
 51
48.28167
  0
CIRCLE
  8
0
 10
1000
 20
7000
 30
0.0
 40
100
  0
CIRCLE
  8
0
 10
2500
 20
8000
 30
0.0
 40
100
  0
CIRCLE
  8
0
 10
4000
 20
7000
 30
0.0
 40
100
  0
CIRCLE
  8
0
 10
100
 20
100
 30
0.0
 40
128
  0
CIRCLE
  8
0
 10
200
 20
200
 30
0.0
 40
218
  0
CIRCLE
  8
0
 10
300
 20
300
 30
0.0
 40
170
  0
CIRCLE
  8
0
 10
350
 20
350
 30
0.0
 40
200
  0
CIRCLE
  8
0
 10
360
 20
360
 30
0.0
 40
200
  0
CIRCLE
  8
0
 10
370
 20
370
 30
0.0
 40
200
  0
ENDSEC
  0
EOF
