  0
SECTION
  2
ENTITIES
  0
LINE
  8
0
 10
0
 20
99.84502
 30
0.0
 11
0
 21
0.7850243
 31
0.0
  0
LINE
  8
0
 10
0
 20
0.7850243
 30
0.0
 11
506.7242
 21
0.7850243
 31
0.0
  0
LINE
  8
0
 10
506.7242
 20
0.7850243
 30
0.0
 11
1013.449
 21
0.7850243
 31
0.0
  0
LINE
  8
0
 10
1013.449
 20
0.7850243
 30
0.0
 11
1013.449
 21
-98.27497
 31
0.0
  0
LINE
  8
0
 10
1013.449
 20
-98.27497
 30
0.0
 11
506.7242
 21
-98.27497
 31
0.0
  0
LINE
  8
0
 10
506.7242
 20
-98.27497
 30
0.0
 11
0
 21
-98.27497
 31
0.0
  0
CIRCLE
  8
0
 10
1000
 20
7000
 30
0.0
 40
100
  0
CIRCLE
  8
0
 10
3000
 20
7000
 30
0.0
 40
100
  0
CIRCLE
  8
0
 10
100
 20
100
 30
0.0
 40
130
  0
CIRCLE
  8
0
 10
200
 20
200
 30
0.0
 40
182
  0
CIRCLE
  8
0
 10
300
 20
300
 30
0.0
 40
200
  0
CIRCLE
  8
0
 10
350
 20
350
 30
0.0
 40
206
  0
CIRCLE
  8
0
 10
360
 20
360
 30
0.0
 40
204
  0
CIRCLE
  8
0
 10
370
 20
370
 30
0.0
 40
200
  0
ENDSEC
  0
EOF
