  0
SECTION
  2
ENTITIES
  0
LINE
  8
0
 10
635
 20
1270
 30
0.0
 11
1143
 21
508
 31
0.0
  0
LINE
  8
0
 10
1143
 20
508
 30
0.0
 11
1651
 21
508
 31
0.0
  0
LINE
  8
0
 10
1651
 20
508
 30
0.0
 11
2159
 21
508
 31
0.0
  0
LINE
  8
0
 10
2159
 20
508
 30
0.0
 11
1651
 21
-254
 31
0.0
  0
LINE
  8
0
 10
1651
 20
-254
 30
0.0
 11
2159
 21
-1016
 31
0.0
  0
LINE
  8
0
 10
2159
 20
-1016
 30
0.0
 11
1651
 21
-1016
 31
0.0
  0
LINE
  8
0
 10
1651
 20
-1016
 30
0.0
 11
1143
 21
-1016
 31
0.0
  0
LINE
  8
0
 10
1143
 20
-1016
 30
0.0
 11
635
 21
-1778
 31
0.0
  0
CIRCLE
  8
0
 10
1000
 20
7000
 30
0.0
 40
100
  0
CIRCLE
  8
0
 10
2000
 20
8000
 30
0.0
 40
100
  0
CIRCLE
  8
0
 10
3000
 20
7000
 30
0.0
 40
100
  0
CIRCLE
  8
0
 10
100
 20
100
 30
0.0
 40
128
  0
CIRCLE
  8
0
 10
200
 20
200
 30
0.0
 40
191
  0
CIRCLE
  8
0
 10
300
 20
300
 30
0.0
 40
180
  0
CIRCLE
  8
0
 10
350
 20
350
 30
0.0
 40
202
  0
CIRCLE
  8
0
 10
360
 20
360
 30
0.0
 40
202
  0
CIRCLE
  8
0
 10
370
 20
370
 30
0.0
 40
200
  0
ENDSEC
  0
EOF
