  0
SECTION
  2
ENTITIES
  0
LINE
  8
0
 10
4943.939
 20
2354.169
 30
0.0
 11
5705.941
 21
1592.17
 31
0.0
  0
LINE
  8
0
 10
5705.941
 20
1592.17
 30
0.0
 11
5374.94
 21
1261.169
 31
0.0
  0
LINE
  8
0
 10
5374.94
 20
1261.169
 30
0.0
 11
5374.94
 21
1361.169
 31
0.0
  0
LINE
  8
0
 10
5374.94
 20
1361.169
 30
0.0
 11
5474.94
 21
1461.169
 31
0.0
  0
LINE
  8
0
 10
5474.94
 20
1461.169
 30
0.0
 11
5474.94
 21
1361.169
 31
0.0
  0
LINE
  8
0
 10
5474.94
 20
1361.169
 30
0.0
 11
5574.94
 21
1361.169
 31
0.0
  0
LINE
  8
0
 10
5574.94
 20
1361.169
 30
0.0
 11
5474.94
 21
1261.169
 31
0.0
  0
LINE
  8
0
 10
5474.94
 20
1261.169
 30
0.0
 11
5374.94
 21
1261.169
 31
0.0
  0
LINE
  8
0
 10
5374.94
 20
1261.169
 30
0.0
 11
5374.94
 21
1161.169
 31
0.0
  0
LINE
  8
0
 10
5374.94
 20
1161.169
 30
0.0
 11
5474.94
 21
1161.169
 31
0.0
  0
LINE
  8
0
 10
5474.94
 20
1161.169
 30
0.0
 11
5574.94
 21
1061.169
 31
0.0
  0
LINE
  8
0
 10
5574.94
 20
1061.169
 30
0.0
 11
5474.94
 21
1061.169
 31
0.0
  0
LINE
  8
0
 10
5474.94
 20
1061.169
 30
0.0
 11
5474.94
 21
961.169
 31
0.0
  0
LINE
  8
0
 10
5474.94
 20
961.169
 30
0.0
 11
5374.94
 21
1061.169
 31
0.0
  0
LINE
  8
0
 10
5374.94
 20
1061.169
 30
0.0
 11
5374.94
 21
1161.169
 31
0.0
  0
LINE
  8
0
 10
5374.94
 20
1161.169
 30
0.0
 11
5299.94
 21
1161.169
 31
0.0
  0
LINE
  8
0
 10
5299.94
 20
1161.169
 30
0.0
 11
5299.94
 21
1186.169
 31
0.0
  0
LINE
  8
0
 10
5299.94
 20
1186.169
 30
0.0
 11
5299.94
 21
1236.169
 31
0.0
  0
LINE
  8
0
 10
5299.94
 20
1236.169
 30
0.0
 11
5324.94
 21
1236.169
 31
0.0
  0
LINE
  8
0
 10
5324.94
 20
1236.169
 30
0.0
 11
5324.94
 21
1186.169
 31
0.0
  0
LINE
  8
0
 10
5324.94
 20
1186.169
 30
0.0
 11
5349.94
 21
1186.169
 31
0.0
  0
LINE
  8
0
 10
5349.94
 20
1186.169
 30
0.0
 11
5349.94
 21
1261.169
 31
0.0
  0
LINE
  8
0
 10
5349.94
 20
1261.169
 30
0.0
 11
5374.94
 21
1261.169
 31
0.0
  0
LINE
  8
0
 10
5374.94
 20
1261.169
 30
0.0
 11
5349.94
 21
1261.169
 31
0.0
  0
LINE
  8
0
 10
5349.94
 20
1261.169
 30
0.0
 11
5274.94
 21
1261.169
 31
0.0
  0
LINE
  8
0
 10
5274.94
 20
1261.169
 30
0.0
 11
5274.94
 21
1361.169
 31
0.0
  0
LINE
  8
0
 10
5274.94
 20
1361.169
 30
0.0
 11
5174.94
 21
1461.169
 31
0.0
  0
LINE
  8
0
 10
5174.94
 20
1461.169
 30
0.0
 11
5174.94
 21
1361.169
 31
0.0
  0
LINE
  8
0
 10
5174.94
 20
1361.169
 30
0.0
 11
5074.94
 21
1361.169
 31
0.0
  0
LINE
  8
0
 10
5074.94
 20
1361.169
 30
0.0
 11
5174.94
 21
1261.169
 31
0.0
  0
LINE
  8
0
 10
5174.94
 20
1261.169
 30
0.0
 11
5274.94
 21
1261.169
 31
0.0
  0
LINE
  8
0
 10
5274.94
 20
1261.169
 30
0.0
 11
5274.94
 21
1161.169
 31
0.0
  0
LINE
  8
0
 10
5274.94
 20
1161.169
 30
0.0
 11
5299.94
 21
1161.169
 31
0.0
  0
LINE
  8
0
 10
5299.94
 20
1161.169
 30
0.0
 11
5274.94
 21
1161.169
 31
0.0
  0
LINE
  8
0
 10
5274.94
 20
1161.169
 30
0.0
 11
5174.94
 21
1161.169
 31
0.0
  0
LINE
  8
0
 10
5174.94
 20
1161.169
 30
0.0
 11
5074.94
 21
1061.169
 31
0.0
  0
LINE
  8
0
 10
5074.94
 20
1061.169
 30
0.0
 11
5174.94
 21
1061.169
 31
0.0
  0
LINE
  8
0
 10
5174.94
 20
1061.169
 30
0.0
 11
5274.94
 21
1161.169
 31
0.0
  0
LINE
  8
0
 10
5274.94
 20
1161.169
 30
0.0
 11
5274.94
 21
1061.169
 31
0.0
  0
LINE
  8
0
 10
5274.94
 20
1061.169
 30
0.0
 11
5174.94
 21
961.169
 31
0.0
  0
LINE
  8
0
 10
5174.94
 20
961.169
 30
0.0
 11
5174.94
 21
1061.169
 31
0.0
  0
LINE
  8
0
 10
5174.94
 20
1061.169
 30
0.0
 11
4943.939
 21
830.1693
 31
0.0
  0
CIRCLE
  8
0
 10
1000
 20
7000
 30
0.0
 40
100
  0
CIRCLE
  8
0
 10
2500
 20
8000
 30
0.0
 40
100
  0
CIRCLE
  8
0
 10
4000
 20
7000
 30
0.0
 40
100
  0
CIRCLE
  8
0
 10
100
 20
100
 30
0.0
 40
125
  0
CIRCLE
  8
0
 10
200
 20
200
 30
0.0
 40
200
  0
CIRCLE
  8
0
 10
300
 20
300
 30
0.0
 40
200
  0
CIRCLE
  8
0
 10
350
 20
350
 30
0.0
 40
200
  0
CIRCLE
  8
0
 10
360
 20
360
 30
0.0
 40
200
  0
CIRCLE
  8
0
 10
370
 20
370
 30
0.0
 40
200
  0
ENDSEC
  0
EOF
