  0
SECTION
  2
ENTITIES
  0
ARC
  8
0
 10
4371.544
 20
2397.15
 30
0.0
 40
481.1182
 50
324.0147
 51
357.0898
  0
LINE
  8
0
 10
4760.849
 20
2114.454
 30
0.0
 11
4556.99
 21
1868.985
 31
0.0
  0
ARC
  8
0
 10
4946.295
 20
1586.29
 30
0.0
 40
481.1182
 50
144.0148
 51
177.0898
  0
ARC
  8
0
 10
4946.295
 20
1635.146
 30
0.0
 40
481.1182
 50
182.9103
 51
215.9854
  0
LINE
  8
0
 10
4556.996
 20
1352.45
 30
0.0
 11
4760.859
 21
1106.986
 31
0.0
  0
ARC
  8
0
 10
4371.562
 20
824.2817
 30
0.0
 40
481.1182
 50
2.911702
 51
35.98682
  0
CIRCLE
  8
0
 10
1000
 20
7000
 30
0.0
 40
100
  0
CIRCLE
  8
0
 10
2000
 20
8000
 30
0.0
 40
100
  0
CIRCLE
  8
0
 10
3000
 20
7000
 30
0.0
 40
100
  0
CIRCLE
  8
0
 10
100
 20
100
 30
0.0
 40
128
  0
CIRCLE
  8
0
 10
200
 20
200
 30
0.0
 40
188
  0
CIRCLE
  8
0
 10
300
 20
300
 30
0.0
 40
177
  0
CIRCLE
  8
0
 10
350
 20
350
 30
0.0
 40
200
  0
CIRCLE
  8
0
 10
360
 20
360
 30
0.0
 40
200
  0
CIRCLE
  8
0
 10
370
 20
370
 30
0.0
 40
200
  0
ENDSEC
  0
EOF
