  0
SECTION
  2
ENTITIES
  0
ARC
  8
0
 10
-399.3102
 20
548.5953
 30
0.0
 40
716.5032
 50
310.034
 51
356.7513
  0
ARC
  8
0
 10
522.4495
 20
-548.7828
 30
0.0
 40
716.5032
 50
130.0197
 51
176.7369
  0
ARC
  8
0
 10
522.4519
 20
-467.2553
 30
0.0
 40
716.5032
 50
183.2597
 51
229.977
  0
ARC
  8
0
 10
-399.3736
 20
-1564.578
 30
0.0
 40
716.5032
 50
3.245565
 51
49.96284
  0
CIRCLE
  8
0
 10
1000
 20
6000
 30
0.0
 40
100
  0
CIRCLE
  8
0
 10
2500
 20
8000
 30
0.0
 40
100
  0
CIRCLE
  8
0
 10
4000
 20
6000
 30
0.0
 40
100
  0
CIRCLE
  8
0
 10
100
 20
100
 30
0.0
 40
128
  0
CIRCLE
  8
0
 10
200
 20
200
 30
0.0
 40
184
  0
CIRCLE
  8
0
 10
300
 20
300
 30
0.0
 40
168
  0
CIRCLE
  8
0
 10
350
 20
350
 30
0.0
 40
200
  0
CIRCLE
  8
0
 10
360
 20
360
 30
0.0
 40
200
  0
CIRCLE
  8
0
 10
370
 20
370
 30
0.0
 40
200
  0
ENDSEC
  0
EOF
