  0
SECTION
  2
ENTITIES
  0
ARC
  8
0
 10
665.9943
 20
301.2517
 30
0.0
 40
414.6938
 50
186.5428
 51
226.5893
  0
ARC
  8
0
 10
96.02013
 20
-301.2531
 30
0.0
 40
414.6938
 50
6.542925
 51
46.58944
  0
ARC
  8
0
 10
920.0059
 20
-206.7486
 30
0.0
 40
414.6938
 50
186.5428
 51
226.5893
  0
ARC
  8
0
 10
350.0318
 20
-809.2533
 30
0.0
 40
414.6938
 50
6.542925
 51
46.58944
  0
ARC
  8
0
 10
350.0318
 20
-714.7467
 30
0.0
 40
414.6938
 50
313.4106
 51
353.4571
  0
ARC
  8
0
 10
920.0059
 20
-1317.251
 30
0.0
 40
414.6938
 50
133.4109
 51
173.4574
  0
ARC
  8
0
 10
96.02013
 20
-1222.747
 30
0.0
 40
414.6938
 50
313.4106
 51
353.4571
  0
ARC
  8
0
 10
665.9943
 20
-1825.252
 30
0.0
 40
414.6938
 50
133.4109
 51
173.4574
  0
CIRCLE
  8
0
 10
1000
 20
6000
 30
0.0
 40
100
  0
CIRCLE
  8
0
 10
2000
 20
8000
 30
0.0
 40
100
  0
CIRCLE
  8
0
 10
3000
 20
6000
 30
0.0
 40
100
  0
CIRCLE
  8
0
 10
100
 20
100
 30
0.0
 40
128
  0
CIRCLE
  8
0
 10
200
 20
200
 30
0.0
 40
182
  0
CIRCLE
  8
0
 10
300
 20
300
 30
0.0
 40
180
  0
CIRCLE
  8
0
 10
350
 20
350
 30
0.0
 40
202
  0
CIRCLE
  8
0
 10
360
 20
360
 30
0.0
 40
200
  0
CIRCLE
  8
0
 10
370
 20
370
 30
0.0
 40
200
  0
ENDSEC
  0
EOF
