  0
SECTION
  2
ENTITIES
  0
ARC
  8
0
 10
1301.059
 20
2219.233
 30
0.0
 40
194.9517
 50
93.85606
 51
125.205
  0
ARC
  8
0
 10
1279.748
 20
2286.743
 30
0.0
 40
129.3048
 50
134.7794
 51
247.1413
  0
LINE
  8
0
 10
1229.519
 20
2167.593
 30
0.0
 11
1706.369
 21
1897.893
 31
0.0
  0
ARC
  8
0
 10
1656.139
 20
1778.743
 30
0.0
 40
129.3048
 50
314.7794
 51
67.14131
  0
ARC
  8
0
 10
1634.828
 20
1846.254
 30
0.0
 40
194.9517
 50
273.856
 51
305.205
  0
ARC
  8
0
 10
1634.828
 20
1457.233
 30
0.0
 40
194.9517
 50
54.79498
 51
86.14393
  0
ARC
  8
0
 10
1656.139
 20
1524.743
 30
0.0
 40
129.3048
 50
292.8587
 51
45.22058
  0
LINE
  8
0
 10
1706.369
 20
1405.593
 30
0.0
 11
1229.519
 21
1135.893
 31
0.0
  0
ARC
  8
0
 10
1279.748
 20
1016.743
 30
0.0
 40
129.3048
 50
112.8587
 51
225.2206
  0
ARC
  8
0
 10
1301.059
 20
1084.254
 30
0.0
 40
194.9517
 50
234.795
 51
266.1439
  0
CIRCLE
  8
0
 10
1000
 20
7000
 30
0.0
 40
100
  0
CIRCLE
  8
0
 10
2500
 20
8000
 30
0.0
 40
100
  0
CIRCLE
  8
0
 10
4000
 20
7000
 30
0.0
 40
100
  0
CIRCLE
  8
0
 10
100
 20
100
 30
0.0
 40
125
  0
CIRCLE
  8
0
 10
200
 20
200
 30
0.0
 40
204
  0
CIRCLE
  8
0
 10
300
 20
300
 30
0.0
 40
200
  0
CIRCLE
  8
0
 10
350
 20
350
 30
0.0
 40
200
  0
CIRCLE
  8
0
 10
360
 20
360
 30
0.0
 40
200
  0
CIRCLE
  8
0
 10
370
 20
370
 30
0.0
 40
200
  0
ENDSEC
  0
EOF
