  0
SECTION
  2
ENTITIES
  0
LINE
  8
0
 10
0
 20
254.0455
 30
0.0
 11
127.0228
 21
254.0455
 31
0.0
  0
LINE
  8
0
 10
127.0228
 20
254.0455
 30
0.0
 11
254.0455
 21
254.0455
 31
0.0
  0
LINE
  8
0
 10
254.0455
 20
254.0455
 30
0.0
 11
381.0683
 21
254.0455
 31
0.0
  0
LINE
  8
0
 10
381.0683
 20
254.0455
 30
0.0
 11
508.0911
 21
254.0455
 31
0.0
  0
LINE
  8
0
 10
508.0911
 20
254.0455
 30
0.0
 11
635.1139
 21
254.0455
 31
0.0
  0
LINE
  8
0
 10
635.1139
 20
254.0455
 30
0.0
 11
762.1367
 21
254.0455
 31
0.0
  0
LINE
  8
0
 10
762.1367
 20
254.0455
 30
0.0
 11
889.1594
 21
254.0455
 31
0.0
  0
LINE
  8
0
 10
889.1594
 20
254.0455
 30
0.0
 11
1016.182
 21
254.0455
 31
0.0
  0
LINE
  8
0
 10
1016.182
 20
254.0455
 30
0.0
 11
0
 21
-546.0544
 31
0.0
  0
CIRCLE
  8
0
 10
1000
 20
7000
 30
0.0
 40
100
  0
CIRCLE
  8
0
 10
3000
 20
7000
 30
0.0
 40
100
  0
CIRCLE
  8
0
 10
5000
 20
7000
 30
0.0
 40
100
  0
CIRCLE
  8
0
 10
100
 20
100
 30
0.0
 40
128
  0
CIRCLE
  8
0
 10
200
 20
200
 30
0.0
 40
200
  0
CIRCLE
  8
0
 10
300
 20
300
 30
0.0
 40
205
  0
CIRCLE
  8
0
 10
350
 20
350
 30
0.0
 40
204
  0
CIRCLE
  8
0
 10
360
 20
360
 30
0.0
 40
204
  0
CIRCLE
  8
0
 10
370
 20
370
 30
0.0
 40
200
  0
ENDSEC
  0
EOF
