  0
SECTION
  2
ENTITIES
  0
ARC
  8
0
 10
-170.6759
 20
263.243
 30
0.0
 40
455.1037
 50
317.0258
 51
358.8369
  0
LINE
  8
0
 10
162.3044
 20
-46.9883
 30
0.0
 11
-31.98819
 21
-206.9964
 31
0.0
  0
ARC
  8
0
 10
301.0171
 20
-517.2009
 30
0.0
 40
455.1037
 50
137.0303
 51
178.8415
  0
ARC
  8
0
 10
301.0164
 20
-498.7625
 30
0.0
 40
455.1037
 50
181.1628
 51
222.9739
  0
LINE
  8
0
 10
-31.98819
 20
-808.9976
 30
0.0
 11
162.3044
 21
-969.0057
 31
0.0
  0
ARC
  8
0
 10
-170.6759
 20
-1279.237
 30
0.0
 40
455.1037
 50
1.16337
 51
42.97446
  0
CIRCLE
  8
0
 10
1000
 20
7000
 30
0.0
 40
100
  0
CIRCLE
  8
0
 10
2000
 20
8000
 30
0.0
 40
100
  0
CIRCLE
  8
0
 10
3000
 20
7000
 30
0.0
 40
100
  0
CIRCLE
  8
0
 10
100
 20
100
 30
0.0
 40
127
  0
CIRCLE
  8
0
 10
200
 20
200
 30
0.0
 40
196
  0
CIRCLE
  8
0
 10
300
 20
300
 30
0.0
 40
172
  0
CIRCLE
  8
0
 10
350
 20
350
 30
0.0
 40
200
  0
CIRCLE
  8
0
 10
360
 20
360
 30
0.0
 40
200
  0
CIRCLE
  8
0
 10
370
 20
370
 30
0.0
 40
200
  0
ENDSEC
  0
EOF
