  0
SECTION
  2
ENTITIES
  0
ARC
  8
0
 10
120.6944
 20
288.9038
 30
0.0
 40
137.7994
 50
295.9529
 51
345.3278
  0
LINE
  8
0
 10
180.9993
 20
165.0007
 30
0.0
 11
-688.9998
 21
-164.9999
 31
0.0
  0
ARC
  8
0
 10
-628.6942
 20
-288.9027
 30
0.0
 40
137.7994
 50
115.9531
 51
165.328
  0
ARC
  8
0
 10
-628.6942
 20
-219.0969
 30
0.0
 40
137.7994
 50
194.6721
 51
244.047
  0
LINE
  8
0
 10
-688.9997
 20
-343.0008
 30
0.0
 11
180.9997
 21
-673.0006
 31
0.0
  0
ARC
  8
0
 10
120.6949
 20
-796.9038
 30
0.0
 40
137.7994
 50
14.67258
 51
64.04745
  0
CIRCLE
  8
0
 10
1000
 20
7000
 30
0.0
 40
100
  0
CIRCLE
  8
0
 10
3000
 20
7000
 30
0.0
 40
100
  0
CIRCLE
  8
0
 10
5000
 20
7000
 30
0.0
 40
100
  0
CIRCLE
  8
0
 10
100
 20
100
 30
0.0
 40
126
  0
CIRCLE
  8
0
 10
200
 20
200
 30
0.0
 40
200
  0
CIRCLE
  8
0
 10
300
 20
300
 30
0.0
 40
200
  0
CIRCLE
  8
0
 10
350
 20
350
 30
0.0
 40
200
  0
CIRCLE
  8
0
 10
360
 20
360
 30
0.0
 40
200
  0
CIRCLE
  8
0
 10
370
 20
370
 30
0.0
 40
200
  0
ENDSEC
  0
EOF
