  0
SECTION
  2
ENTITIES
  0
ARC
  8
0
 10
-148.3773
 20
569.6426
 30
0.0
 40
407.0718
 50
327.5129
 51
351.2902
  0
LINE
  8
0
 10
194.9919
 20
350.999
 30
0.0
 11
59.00602
 21
156.9955
 31
0.0
  0
ARC
  8
0
 10
402.3747
 20
-61.64888
 30
0.0
 40
407.0718
 50
147.5126
 51
171.2899
  0
ARC
  8
0
 10
402.3751
 20
61.63958
 30
0.0
 40
407.0718
 50
188.7098
 51
212.4871
  0
LINE
  8
0
 10
59.00434
 20
-157.0016
 30
0.0
 11
194.9998
 21
-351.003
 31
0.0
  0
ARC
  8
0
 10
-148.3721
 20
-569.6425
 30
0.0
 40
407.0718
 50
8.709378
 51
32.48666
  0
ARC
  8
0
 10
656.3824
 20
-446.3533
 30
0.0
 40
407.0718
 50
188.7107
 51
212.488
  0
LINE
  8
0
 10
313.0157
 20
-665.0008
 30
0.0
 11
449.0038
 21
-859.0027
 31
0.0
  0
ARC
  8
0
 10
105.6377
 20
-1077.651
 30
0.0
 40
407.0718
 50
8.710867
 51
32.48816
  0
ARC
  8
0
 10
105.6359
 20
-954.3627
 30
0.0
 40
407.0718
 50
327.5137
 51
351.291
  0
LINE
  8
0
 10
449.0092
 20
-1173
 30
0.0
 11
313.016
 21
-1367.003
 31
0.0
  0
ARC
  8
0
 10
656.3904
 20
-1585.638
 30
0.0
 40
407.0718
 50
147.514
 51
171.2912
  0
CIRCLE
  8
0
 10
1000
 20
6000
 30
0.0
 40
100
  0
CIRCLE
  8
0
 10
1000
 20
8000
 30
0.0
 40
100
  0
CIRCLE
  8
0
 10
2000
 20
6000
 30
0.0
 40
100
  0
CIRCLE
  8
0
 10
2000
 20
8000
 30
0.0
 40
100
  0
CIRCLE
  8
0
 10
3000
 20
6000
 30
0.0
 40
100
  0
CIRCLE
  8
0
 10
3000
 20
8000
 30
0.0
 40
100
  0
CIRCLE
  8
0
 10
100
 20
100
 30
0.0
 40
128
  0
CIRCLE
  8
0
 10
200
 20
200
 30
0.0
 40
194
  0
CIRCLE
  8
0
 10
300
 20
300
 30
0.0
 40
162
  0
CIRCLE
  8
0
 10
350
 20
350
 30
0.0
 40
200
  0
CIRCLE
  8
0
 10
360
 20
360
 30
0.0
 40
200
  0
CIRCLE
  8
0
 10
370
 20
370
 30
0.0
 40
200
  0
ENDSEC
  0
EOF
