  0
SECTION
  2
ENTITIES
  0
ARC
  8
0
 10
5341.75
 20
2222.64
 30
0.0
 40
381.5262
 50
273.009
 51
360
  0
ARC
  8
0
 10
5152.25
 20
1847.924
 30
0.0
 40
209.6222
 50
358.2826
 51
36.0535
  0
ARC
  8
0
 10
5231.607
 20
2061.038
 30
0.0
 40
127.1754
 50
89.99999
 51
315.1166
  0
ARC
  8
0
 10
5341.75
 20
2251.802
 30
0.0
 40
127.1754
 50
330
 51
210
  0
ARC
  8
0
 10
5451.882
 20
2061.038
 30
0.0
 40
127.1754
 50
224.8834
 51
89.99999
  0
ARC
  8
0
 10
5531.239
 20
1847.924
 30
0.0
 40
209.6222
 50
143.9465
 51
181.7174
  0
ARC
  8
0
 10
5341.75
 20
1460.64
 30
0.0
 40
381.5262
 50
93.00905
 51
266.991
  0
ARC
  8
0
 10
5531.239
 20
1085.924
 30
0.0
 40
209.6222
 50
143.9465
 51
181.7174
  0
ARC
  8
0
 10
5451.882
 20
1299.037
 30
0.0
 40
127.1754
 50
224.8834
 51
89.99999
  0
ARC
  8
0
 10
5341.75
 20
1489.8
 30
0.0
 40
127.1754
 50
330
 51
210
  0
ARC
  8
0
 10
5231.607
 20
1299.037
 30
0.0
 40
127.1754
 50
89.99999
 51
315.1166
  0
ARC
  8
0
 10
5152.25
 20
1085.924
 30
0.0
 40
209.6222
 50
358.2826
 51
36.0535
  0
ARC
  8
0
 10
5341.75
 20
698.639
 30
0.0
 40
381.5262
 50
0
 51
86.99099
  0
CIRCLE
  8
0
 10
1000
 20
7000
 30
0.0
 40
100
  0
CIRCLE
  8
0
 10
2500
 20
8000
 30
0.0
 40
100
  0
CIRCLE
  8
0
 10
4000
 20
7000
 30
0.0
 40
100
  0
CIRCLE
  8
0
 10
100
 20
100
 30
0.0
 40
125
  0
CIRCLE
  8
0
 10
200
 20
200
 30
0.0
 40
200
  0
CIRCLE
  8
0
 10
300
 20
300
 30
0.0
 40
200
  0
CIRCLE
  8
0
 10
350
 20
350
 30
0.0
 40
200
  0
CIRCLE
  8
0
 10
360
 20
360
 30
0.0
 40
200
  0
CIRCLE
  8
0
 10
370
 20
370
 30
0.0
 40
200
  0
ENDSEC
  0
EOF
