  0
SECTION
  2
ENTITIES
  0
ARC
  8
0
 10
5441.225
 20
2394.633
 30
0.0
 40
549.603
 50
182.2846
 51
227.1461
  0
ARC
  8
0
 10
4693.618
 20
1588.818
 30
0.0
 40
549.603
 50
2.284553
 51
47.14602
  0
ARC
  8
0
 10
4693.618
 20
1632.63
 30
0.0
 40
549.603
 50
312.8544
 51
357.7159
  0
ARC
  8
0
 10
5441.23
 20
826.8204
 30
0.0
 40
549.603
 50
132.8544
 51
177.7159
  0
CIRCLE
  8
0
 10
1000
 20
7000
 30
0.0
 40
100
  0
CIRCLE
  8
0
 10
2000
 20
8000
 30
0.0
 40
100
  0
CIRCLE
  8
0
 10
3000
 20
7000
 30
0.0
 40
100
  0
CIRCLE
  8
0
 10
100
 20
100
 30
0.0
 40
128
  0
CIRCLE
  8
0
 10
200
 20
200
 30
0.0
 40
148
  0
CIRCLE
  8
0
 10
300
 20
300
 30
0.0
 40
177
  0
CIRCLE
  8
0
 10
350
 20
350
 30
0.0
 40
200
  0
CIRCLE
  8
0
 10
360
 20
360
 30
0.0
 40
200
  0
CIRCLE
  8
0
 10
370
 20
370
 30
0.0
 40
200
  0
ENDSEC
  0
EOF
