  0
SECTION
  2
ENTITIES
  0
ARC
  8
0
 10
4603.32
 20
2380.654
 30
0.0
 40
248.8475
 50
331.9001
 51
358.1735
  0
LINE
  8
0
 10
4822.837
 20
2263.441
 30
0.0
 11
4495.002
 21
1720
 31
0.0
  0
ARC
  8
0
 10
4714.52
 20
1602.794
 30
0.0
 40
248.8475
 50
151.901
 51
178.1743
  0
ARC
  8
0
 10
4714.52
 20
1618.649
 30
0.0
 40
248.8475
 50
181.8251
 51
208.0983
  0
LINE
  8
0
 10
4495.001
 20
1501.443
 30
0.0
 11
4822.835
 21
958.0013
 31
0.0
  0
ARC
  8
0
 10
4603.317
 20
840.7894
 30
0.0
 40
248.8475
 50
1.826579
 51
28.09987
  0
CIRCLE
  8
0
 10
1000
 20
7000
 30
0.0
 40
100
  0
CIRCLE
  8
0
 10
2000
 20
8000
 30
0.0
 40
100
  0
CIRCLE
  8
0
 10
3000
 20
7000
 30
0.0
 40
100
  0
CIRCLE
  8
0
 10
100
 20
100
 30
0.0
 40
130
  0
CIRCLE
  8
0
 10
200
 20
200
 30
0.0
 40
178
  0
CIRCLE
  8
0
 10
300
 20
300
 30
0.0
 40
177
  0
CIRCLE
  8
0
 10
350
 20
350
 30
0.0
 40
200
  0
CIRCLE
  8
0
 10
360
 20
360
 30
0.0
 40
200
  0
CIRCLE
  8
0
 10
370
 20
370
 30
0.0
 40
200
  0
ENDSEC
  0
EOF
