  0
SECTION
  2
ENTITIES
  0
ARC
  8
0
 10
-114.101
 20
343.8181
 30
0.0
 40
208.8352
 50
303.1186
 51
358.3544
  0
ARC
  8
0
 10
114.1013
 20
-5.998752
 30
0.0
 40
208.8352
 50
123.1183
 51
178.3541
  0
ARC
  8
0
 10
114.1013
 20
5.99879
 30
0.0
 40
208.8352
 50
181.646
 51
236.8819
  0
ARC
  8
0
 10
-114.1007
 20
-343.8183
 30
0.0
 40
208.8352
 50
1.645922
 51
56.88174
  0
CIRCLE
  8
0
 10
1000
 20
6000
 30
0.0
 40
100
  0
CIRCLE
  8
0
 10
1500
 20
8000
 30
0.0
 40
100
  0
CIRCLE
  8
0
 10
2000
 20
6000
 30
0.0
 40
100
  0
CIRCLE
  8
0
 10
100
 20
100
 30
0.0
 40
127
  0
CIRCLE
  8
0
 10
200
 20
200
 30
0.0
 40
187
  0
CIRCLE
  8
0
 10
300
 20
300
 30
0.0
 40
192
  0
CIRCLE
  8
0
 10
350
 20
350
 30
0.0
 40
200
  0
CIRCLE
  8
0
 10
360
 20
360
 30
0.0
 40
200
  0
CIRCLE
  8
0
 10
370
 20
370
 30
0.0
 40
200
  0
ENDSEC
  0
EOF
