  0
SECTION
  2
ENTITIES
  0
LINE
  8
0
 10
0
 20
59.69
 30
0.0
 11
0
 21
0
 31
0.0
  0
LINE
  8
0
 10
0
 20
0
 30
0.0
 11
252.4681
 21
0
 31
0.0
  0
LINE
  8
0
 10
252.4681
 20
0
 30
0.0
 11
504.9363
 21
0
 31
0.0
  0
LINE
  8
0
 10
504.9363
 20
0
 30
0.0
 11
757.4044
 21
0
 31
0.0
  0
LINE
  8
0
 10
757.4044
 20
0
 30
0.0
 11
1009.873
 21
0
 31
0.0
  0
LINE
  8
0
 10
1009.873
 20
0
 30
0.0
 11
1009.873
 21
-59.69
 31
0.0
  0
LINE
  8
0
 10
1009.873
 20
-59.69
 30
0.0
 11
757.4044
 21
-59.69
 31
0.0
  0
LINE
  8
0
 10
757.4044
 20
-59.69
 30
0.0
 11
504.9363
 21
-59.69
 31
0.0
  0
LINE
  8
0
 10
504.9363
 20
-59.69
 30
0.0
 11
252.4681
 21
-59.69
 31
0.0
  0
LINE
  8
0
 10
252.4681
 20
-59.69
 30
0.0
 11
0
 21
-59.69
 31
0.0
  0
CIRCLE
  8
0
 10
1000
 20
7000
 30
0.0
 40
100
  0
CIRCLE
  8
0
 10
3000
 20
7000
 30
0.0
 40
100
  0
CIRCLE
  8
0
 10
5000
 20
7000
 30
0.0
 40
100
  0
CIRCLE
  8
0
 10
100
 20
100
 30
0.0
 40
132
  0
CIRCLE
  8
0
 10
200
 20
200
 30
0.0
 40
193
  0
CIRCLE
  8
0
 10
300
 20
300
 30
0.0
 40
200
  0
CIRCLE
  8
0
 10
350
 20
350
 30
0.0
 40
210
  0
CIRCLE
  8
0
 10
360
 20
360
 30
0.0
 40
210
  0
CIRCLE
  8
0
 10
370
 20
370
 30
0.0
 40
200
  0
ENDSEC
  0
EOF
