  0
SECTION
  2
ENTITIES
  0
ARC
  8
0
 10
-368.9005
 20
475.4755
 30
0.0
 40
660.9017
 50
288.6279
 51
340.3899
  0
ARC
  8
0
 10
-91.66294
 20
-532.5919
 30
0.0
 40
387.4731
 50
99.82726
 51
176.4111
  0
ARC
  8
0
 10
-91.66294
 20
-484.0804
 30
0.0
 40
387.4731
 50
183.5891
 51
260.1729
  0
ARC
  8
0
 10
-368.9005
 20
-1492.148
 30
0.0
 40
660.9017
 50
19.61035
 51
71.37243
  0
ARC
  8
0
 10
798.2984
 20
-1315.696
 30
0.0
 40
546.5175
 50
116.5115
 51
175.2393
  0
ARC
  8
0
 10
447.1682
 20
-556.3287
 30
0.0
 40
290.7904
 50
291.6275
 51
37.69421
  0
ARC
  8
0
 10
484.2374
 20
-534.209
 30
0.0
 40
247.9868
 50
38.88681
 51
157.7791
  0
ARC
  8
0
 10
24.8728
 20
-533.6547
 30
0.0
 40
247.9868
 50
22.08265
 51
140.9751
  0
ARC
  8
0
 10
61.88853
 20
-555.8637
 30
0.0
 40
290.7904
 50
142.1677
 51
248.2343
  0
ARC
  8
0
 10
-291.0734
 20
-1314.381
 30
0.0
 40
546.5175
 50
4.622449
 51
63.35027
  0
CIRCLE
  8
0
 10
1000
 20
7000
 30
0.0
 40
100
  0
CIRCLE
  8
0
 10
2500
 20
8000
 30
0.0
 40
100
  0
CIRCLE
  8
0
 10
4000
 20
7000
 30
0.0
 40
100
  0
CIRCLE
  8
0
 10
100
 20
100
 30
0.0
 40
128
  0
CIRCLE
  8
0
 10
200
 20
200
 30
0.0
 40
193
  0
CIRCLE
  8
0
 10
300
 20
300
 30
0.0
 40
163
  0
CIRCLE
  8
0
 10
350
 20
350
 30
0.0
 40
200
  0
CIRCLE
  8
0
 10
360
 20
360
 30
0.0
 40
200
  0
CIRCLE
  8
0
 10
370
 20
370
 30
0.0
 40
200
  0
ENDSEC
  0
EOF
