  0
SECTION
  2
ENTITIES
  0
LINE
  8
0
 10
0
 20
0
 30
0.0
 11
0
 21
-79.84963
 31
0.0
  0
LINE
  8
0
 10
0
 20
-79.84963
 30
0.0
 11
-177.7673
 21
-339.09
 31
0.0
  0
LINE
  8
0
 10
-177.7673
 20
-339.09
 30
0.0
 11
-177.7673
 21
-418.9396
 31
0.0
  0
LINE
  8
0
 10
-177.7673
 20
-418.9396
 30
0.0
 11
0
 21
-678.18
 31
0.0
  0
CIRCLE
  8
0
 10
1000
 20
6000
 30
0.0
 40
100
  0
CIRCLE
  8
0
 10
1500
 20
8000
 30
0.0
 40
100
  0
CIRCLE
  8
0
 10
2000
 20
6000
 30
0.0
 40
100
  0
CIRCLE
  8
0
 10
100
 20
100
 30
0.0
 40
127
  0
CIRCLE
  8
0
 10
200
 20
200
 30
0.0
 40
185
  0
CIRCLE
  8
0
 10
300
 20
300
 30
0.0
 40
192
  0
CIRCLE
  8
0
 10
350
 20
350
 30
0.0
 40
202
  0
CIRCLE
  8
0
 10
360
 20
360
 30
0.0
 40
200
  0
CIRCLE
  8
0
 10
370
 20
370
 30
0.0
 40
200
  0
ENDSEC
  0
EOF
