  0
SECTION
  2
ENTITIES
  0
ARC
  8
0
 10
-91.88924
 20
742.3322
 30
0.0
 40
348.1901
 50
317.7011
 51
3.237947
  0
LINE
  8
0
 10
165.6466
 20
507.9998
 30
0.0
 11
-38.00086
 21
253.9982
 31
0.0
  0
ARC
  8
0
 10
219.5342
 20
19.66494
 30
0.0
 40
348.1901
 50
137.7008
 51
183.2376
  0
ARC
  8
0
 10
219.5341
 20
-19.66467
 30
0.0
 40
348.1901
 50
176.7622
 51
222.299
  0
LINE
  8
0
 10
-38.0038
 20
-253.9951
 30
0.0
 11
165.6407
 21
-507.9991
 31
0.0
  0
ARC
  8
0
 10
-91.89784
 20
-742.3286
 30
0.0
 40
348.1901
 50
356.7614
 51
42.2985
  0
CIRCLE
  8
0
 10
1000
 20
7000
 30
0.0
 40
100
  0
CIRCLE
  8
0
 10
2000
 20
8000
 30
0.0
 40
100
  0
CIRCLE
  8
0
 10
3000
 20
7000
 30
0.0
 40
100
  0
CIRCLE
  8
0
 10
100
 20
100
 30
0.0
 40
128
  0
CIRCLE
  8
0
 10
200
 20
200
 30
0.0
 40
192
  0
CIRCLE
  8
0
 10
300
 20
300
 30
0.0
 40
174
  0
CIRCLE
  8
0
 10
350
 20
350
 30
0.0
 40
200
  0
CIRCLE
  8
0
 10
360
 20
360
 30
0.0
 40
200
  0
CIRCLE
  8
0
 10
370
 20
370
 30
0.0
 40
200
  0
ENDSEC
  0
EOF
