  0
SECTION
  2
ENTITIES
  0
ARC
  8
0
 10
-357.8537
 20
-9.249323
 30
0.0
 40
357.9746
 50
310.3673
 51
1.481045
  0
LINE
  8
0
 10
-125.9997
 20
-281.994
 30
0.0
 11
-381.9969
 21
-479.996
 31
0.0
  0
ARC
  8
0
 10
-150.142
 20
-752.74
 30
0.0
 40
357.9746
 50
130.3674
 51
181.481
  0
ARC
  8
0
 10
-150.142
 20
-771.2518
 30
0.0
 40
357.9746
 50
178.5191
 51
229.6327
  0
LINE
  8
0
 10
-381.9969
 20
-1043.996
 30
0.0
 11
-125.9997
 21
-1241.998
 31
0.0
  0
ARC
  8
0
 10
-357.8537
 20
-1514.742
 30
0.0
 40
357.9746
 50
358.5189
 51
49.63293
  0
CIRCLE
  8
0
 10
1000
 20
8000
 30
0.0
 40
100
  0
CIRCLE
  8
0
 10
2000
 20
7000
 30
0.0
 40
100
  0
CIRCLE
  8
0
 10
3000
 20
8000
 30
0.0
 40
100
  0
CIRCLE
  8
0
 10
100
 20
100
 30
0.0
 40
127
  0
CIRCLE
  8
0
 10
200
 20
200
 30
0.0
 40
188
  0
CIRCLE
  8
0
 10
300
 20
300
 30
0.0
 40
182
  0
CIRCLE
  8
0
 10
350
 20
350
 30
0.0
 40
200
  0
CIRCLE
  8
0
 10
360
 20
360
 30
0.0
 40
200
  0
CIRCLE
  8
0
 10
370
 20
370
 30
0.0
 40
200
  0
ENDSEC
  0
EOF
