  0
SECTION
  2
ENTITIES
  0
ARC
  8
0
 10
-43.89041
 20
20.96346
 30
0.0
 40
298.6284
 50
304.2085
 51
355.9741
  0
LINE
  8
0
 10
123.9994
 20
-226.002
 30
0.0
 11
-378.007
 21
-536.0025
 31
0.0
  0
ARC
  8
0
 10
-210.1106
 20
-782.9636
 30
0.0
 40
298.6284
 50
124.2099
 51
175.9755
  0
ARC
  8
0
 10
-210.1106
 20
-741.0444
 30
0.0
 40
298.6284
 50
184.0247
 51
235.7903
  0
LINE
  8
0
 10
-378.007
 20
-988.0055
 30
0.0
 11
123.9994
 21
-1298.006
 31
0.0
  0
ARC
  8
0
 10
-43.89041
 20
-1544.971
 30
0.0
 40
298.6284
 50
4.026209
 51
55.79176
  0
CIRCLE
  8
0
 10
1000
 20
7000
 30
0.0
 40
100
  0
CIRCLE
  8
0
 10
2000
 20
7000
 30
0.0
 40
100
  0
CIRCLE
  8
0
 10
3500
 20
7000
 30
0.0
 40
100
  0
CIRCLE
  8
0
 10
100
 20
100
 30
0.0
 40
128
  0
CIRCLE
  8
0
 10
200
 20
200
 30
0.0
 40
188
  0
CIRCLE
  8
0
 10
300
 20
300
 30
0.0
 40
191
  0
CIRCLE
  8
0
 10
350
 20
350
 30
0.0
 40
200
  0
CIRCLE
  8
0
 10
360
 20
360
 30
0.0
 40
200
  0
CIRCLE
  8
0
 10
370
 20
370
 30
0.0
 40
200
  0
ENDSEC
  0
EOF
