  0
SECTION
  2
ENTITIES
  0
ARC
  8
0
 10
331.5623
 20
769.2925
 30
0.0
 40
202.3692
 50
322.821
 51
357.9351
  0
LINE
  8
0
 10
492.7997
 20
646.9986
 30
0.0
 11
168.0002
 21
115.0001
 31
0.0
  0
ARC
  8
0
 10
329.2377
 20
-7.293641
 30
0.0
 40
202.3692
 50
142.8209
 51
177.9349
  0
ARC
  8
0
 10
329.2378
 20
7.291233
 30
0.0
 40
202.3692
 50
182.065
 51
217.1791
  0
LINE
  8
0
 10
168.0002
 20
-115.0006
 30
0.0
 11
492.7997
 21
-646.9991
 31
0.0
  0
ARC
  8
0
 10
331.5623
 20
-769.293
 30
0.0
 40
202.3692
 50
2.065202
 51
37.17928
  0
CIRCLE
  8
0
 10
1000
 20
7000
 30
0.0
 40
100
  0
CIRCLE
  8
0
 10
2000
 20
8000
 30
0.0
 40
100
  0
CIRCLE
  8
0
 10
3000
 20
7000
 30
0.0
 40
100
  0
CIRCLE
  8
0
 10
100
 20
100
 30
0.0
 40
125
  0
CIRCLE
  8
0
 10
200
 20
200
 30
0.0
 40
218
  0
CIRCLE
  8
0
 10
300
 20
300
 30
0.0
 40
175
  0
CIRCLE
  8
0
 10
350
 20
350
 30
0.0
 40
200
  0
CIRCLE
  8
0
 10
360
 20
360
 30
0.0
 40
200
  0
CIRCLE
  8
0
 10
370
 20
370
 30
0.0
 40
200
  0
ENDSEC
  0
EOF
