  0
SECTION
  2
ENTITIES
  0
ARC
  8
0
 10
8.041634
 20
-337.365
 30
0.0
 40
381
 50
0
 51
89.99999
  0
ARC
  8
0
 10
127.1445
 20
-296.0469
 30
0.0
 40
265.1363
 50
278.9653
 51
351.0347
  0
ARC
  8
0
 10
191.8574
 20
-477.7335
 30
0.0
 40
83.55263
 50
106.2602
 51
253.7397
  0
ARC
  8
0
 10
163.6895
 20
-225.4459
 30
0.0
 40
172.1432
 50
195.7574
 51
271.589
  0
ARC
  8
0
 10
35.03967
 20
-228.0959
 30
0.0
 40
58.12499
 50
54.83373
 51
230.7702
  0
ARC
  8
0
 10
57.10451
 20
-209.7476
 30
0.0
 40
31.32106
 50
353.9684
 51
68.63146
  0
ARC
  8
0
 10
36.94952
 20
-194.9039
 30
0.0
 40
54.41352
 50
135.6862
 51
340.5322
  0
ARC
  8
0
 10
109.1205
 20
-202.519
 30
0.0
 40
119.8618
 50
104.9367
 51
157.0215
  0
ARC
  8
0
 10
95.22155
 20
-383.6672
 30
0.0
 40
297.446
 50
8.955412
 51
93.27559
  0
ARC
  8
0
 10
8.041634
 20
-337.365
 30
0.0
 40
381
 50
270
 51
0
  0
ARC
  8
0
 10
8.041634
 20
-1099.365
 30
0.0
 40
381
 50
89.99999
 51
180
  0
ARC
  8
0
 10
-111.0613
 20
-1058.047
 30
0.0
 40
265.1363
 50
188.9653
 51
261.0347
  0
ARC
  8
0
 10
-175.7741
 20
-1239.733
 30
0.0
 40
83.55263
 50
286.2602
 51
73.73978
  0
ARC
  8
0
 10
-147.6062
 20
-987.4459
 30
0.0
 40
172.1432
 50
268.411
 51
344.2426
  0
ARC
  8
0
 10
-18.9564
 20
-990.0959
 30
0.0
 40
58.12499
 50
309.2298
 51
125.1663
  0
ARC
  8
0
 10
-41.02123
 20
-971.7476
 30
0.0
 40
31.32106
 50
111.3686
 51
186.0316
  0
ARC
  8
0
 10
-20.86625
 20
-956.9039
 30
0.0
 40
54.41352
 50
199.4678
 51
44.31379
  0
ARC
  8
0
 10
-93.03727
 20
-964.519
 30
0.0
 40
119.8618
 50
22.97851
 51
75.06326
  0
ARC
  8
0
 10
-79.13829
 20
-1145.667
 30
0.0
 40
297.446
 50
86.72439
 51
171.0446
  0
ARC
  8
0
 10
8.041634
 20
-1099.365
 30
0.0
 40
381
 50
180
 51
270
  0
CIRCLE
  8
0
 10
1000
 20
8000
 30
0.0
 40
100
  0
CIRCLE
  8
0
 10
2500
 20
7000
 30
0.0
 40
100
  0
CIRCLE
  8
0
 10
4000
 20
8000
 30
0.0
 40
100
  0
CIRCLE
  8
0
 10
100
 20
100
 30
0.0
 40
128
  0
CIRCLE
  8
0
 10
200
 20
200
 30
0.0
 40
200
  0
CIRCLE
  8
0
 10
300
 20
300
 30
0.0
 40
200
  0
CIRCLE
  8
0
 10
350
 20
350
 30
0.0
 40
200
  0
CIRCLE
  8
0
 10
360
 20
360
 30
0.0
 40
200
  0
CIRCLE
  8
0
 10
370
 20
370
 30
0.0
 40
200
  0
ENDSEC
  0
EOF
