  0
SECTION
  2
ENTITIES
  0
ARC
  8
0
 10
169.4612
 20
684.066
 30
0.0
 40
645.7977
 50
280.9374
 51
312.7701
  0
LINE
  8
0
 10
291.9934
 20
49.99928
 30
0.0
 11
138.998
 21
24.99954
 31
0.0
  0
ARC
  8
0
 10
71.78272
 20
343.0573
 30
0.0
 40
325.0825
 50
209.3531
 51
281.933
  0
ARC
  8
0
 10
-402.3324
 20
-18.46126
 30
0.0
 40
277.9634
 50
46.66156
 51
91.99326
  0
ARC
  8
0
 10
-358.4044
 20
142.4547
 30
0.0
 40
128.5818
 50
114.6341
 51
231.3752
  0
ARC
  8
0
 10
-229.516
 20
410.8541
 30
0.0
 40
424.0251
 50
240.4453
 51
265.195
  0
ARC
  8
0
 10
-286.2347
 20
-74.52608
 30
0.0
 40
66.32516
 50
301.0747
 51
71.35771
  0
ARC
  8
0
 10
-211.5616
 20
-212.4201
 30
0.0
 40
90.6112
 50
116.5062
 51
242.7852
  0
ARC
  8
0
 10
-302.4966
 20
-381.3139
 30
0.0
 40
101.2378
 50
18.8131
 51
60.73145
  0
ARC
  8
0
 10
-144.5105
 20
-330.4671
 30
0.0
 40
64.76643
 50
196.3201
 51
308.7175
  0
LINE
  8
0
 10
-104.0006
 20
-381.0006
 30
0.0
 11
266.5743
 21
-148.8959
 31
0.0
  0
LINE
  8
0
 10
266.5743
 20
-148.8959
 30
0.0
 11
374.0003
 21
-89.00009
 31
0.0
  0
ARC
  8
0
 10
430.8805
 20
-251.3164
 30
0.0
 40
171.9939
 50
10.49032
 51
109.312
  0
ARC
  8
0
 10
351.9501
 20
-159.4201
 30
0.0
 40
255.3404
 50
302.5221
 51
346.2755
  0
ARC
  8
0
 10
505.7495
 20
-427.2309
 30
0.0
 40
55.04976
 50
107.4656
 51
224.7698
  0
LINE
  8
0
 10
466.6673
 20
-466.0002
 30
0.0
 11
522.3474
 21
-532.5107
 31
0.0
  0
ARC
  8
0
 10
478.939
 20
-566.756
 30
0.0
 40
55.29025
 50
257.1763
 51
38.27034
  0
ARC
  8
0
 10
426.6674
 20
-715.6683
 30
0.0
 40
103.0787
 50
67.16675
 51
112.8335
  0
ARC
  8
0
 10
322.8338
 20
-469.1687
 30
0.0
 40
164.3976
 50
275.9937
 51
292.848
  0
ARC
  8
0
 10
263.0738
 20
-991.6808
 30
0.0
 40
367.1625
 50
77.90605
 51
131.8
  0
ARC
  8
0
 10
1972.405
 20
-1716.929
 30
0.0
 40
2194.597
 50
152.9228
 51
168.7469
  0
ARC
  8
0
 10
-340.4099
 20
-1285.13
 30
0.0
 40
160.4483
 50
290.5834
 51
358.7364
  0
LINE
  8
0
 10
-284.0014
 20
-1435.335
 30
0.0
 11
-351.1523
 21
-1492.002
 31
0.0
  0
ARC
  8
0
 10
-297.8659
 20
-1552.662
 30
0.0
 40
80.74212
 50
131.2966
 51
296.9009
  0
LINE
  8
0
 10
-261.3344
 20
-1624.669
 30
0.0
 11
-197.2612
 21
-1598.668
 31
0.0
  0
LINE
  8
0
 10
-197.2612
 20
-1598.668
 30
0.0
 11
-9.9153
 21
-1392.002
 31
0.0
  0
ARC
  8
0
 10
58.42362
 20
-1448.878
 30
0.0
 40
88.91108
 50
7.026714
 51
140.2303
  0
ARC
  8
0
 10
819.794
 20
-1375.154
 30
0.0
 40
676.0547
 50
185.3339
 51
208.9119
  0
ARC
  8
0
 10
388.7263
 20
-1598.599
 30
0.0
 40
191.1163
 50
212.7556
 51
260.9511
  0
ARC
  8
0
 10
460.611
 20
-2212.152
 30
0.0
 40
436.8775
 50
76.51227
 51
103.4941
  0
ARC
  8
0
 10
550.3483
 20
-1850.449
 30
0.0
 40
64.28419
 50
26.26067
 51
79.09711
  0
CIRCLE
  8
0
 10
1000
 20
6000
 30
0.0
 40
100
  0
CIRCLE
  8
0
 10
1000
 20
8000
 30
0.0
 40
100
  0
CIRCLE
  8
0
 10
3000
 20
6000
 30
0.0
 40
100
  0
CIRCLE
  8
0
 10
3000
 20
8000
 30
0.0
 40
100
  0
CIRCLE
  8
0
 10
5000
 20
6000
 30
0.0
 40
100
  0
CIRCLE
  8
0
 10
5000
 20
8000
 30
0.0
 40
100
  0
CIRCLE
  8
0
 10
100
 20
100
 30
0.0
 40
128
  0
CIRCLE
  8
0
 10
200
 20
200
 30
0.0
 40
192
  0
CIRCLE
  8
0
 10
300
 20
300
 30
0.0
 40
180
  0
CIRCLE
  8
0
 10
350
 20
350
 30
0.0
 40
202
  0
CIRCLE
  8
0
 10
360
 20
360
 30
0.0
 40
200
  0
CIRCLE
  8
0
 10
370
 20
370
 30
0.0
 40
200
  0
ENDSEC
  0
EOF
