  0
SECTION
  2
ENTITIES
  0
LINE
  8
0
 10
1723.695
 20
-1120.165
 30
0.0
 11
1524
 21
-1384.905
 31
0.0
  0
LINE
  8
0
 10
1524
 20
-1384.905
 30
0.0
 11
1375.353
 21
-2020.035
 31
0.0
  0
LINE
  8
0
 10
1375.353
 20
-2020.035
 30
0.0
 11
1524
 21
-2400.905
 31
0.0
  0
LINE
  8
0
 10
1524
 20
-2400.905
 30
0.0
 11
2161.291
 21
-2135.495
 31
0.0
  0
LINE
  8
0
 10
2161.291
 20
-2135.495
 30
0.0
 11
1973.952
 21
-1710.635
 31
0.0
  0
LINE
  8
0
 10
1973.952
 20
-1710.635
 30
0.0
 11
1524
 21
-2400.905
 31
0.0
  0
LINE
  8
0
 10
1524
 20
-2400.905
 30
0.0
 11
1778
 21
-2460.496
 31
0.0
  0
LINE
  8
0
 10
1778
 20
-2460.496
 30
0.0
 11
1778
 21
-2766.626
 31
0.0
  0
LINE
  8
0
 10
1778
 20
-2766.626
 30
0.0
 11
1973.952
 21
-2654.905
 31
0.0
  0
LINE
  8
0
 10
1973.952
 20
-2654.905
 30
0.0
 11
2074.272
 21
-2400.905
 31
0.0
  0
LINE
  8
0
 10
2074.272
 20
-2400.905
 30
0.0
 11
2161.291
 21
-2135.495
 31
0.0
  0
LINE
  8
0
 10
2161.291
 20
-2135.495
 30
0.0
 11
2285.048
 21
-1750.563
 31
0.0
  0
LINE
  8
0
 10
2285.048
 20
-1750.563
 30
0.0
 11
2715.946
 21
-1538.731
 31
0.0
  0
LINE
  8
0
 10
2715.946
 20
-1538.731
 30
0.0
 11
2485.207
 21
-2196.121
 31
0.0
  0
LINE
  8
0
 10
2485.207
 20
-2196.121
 30
0.0
 11
3048
 21
-2400.905
 31
0.0
  0
LINE
  8
0
 10
3048
 20
-2400.905
 30
0.0
 11
2540
 21
-2700.792
 31
0.0
  0
LINE
  8
0
 10
2540
 20
-2700.792
 30
0.0
 11
2786.102
 21
-2700.348
 31
0.0
  0
LINE
  8
0
 10
2786.102
 20
-2700.348
 30
0.0
 11
2969.901
 21
-2972.018
 31
0.0
  0
LINE
  8
0
 10
2969.901
 20
-2972.018
 30
0.0
 11
2764.724
 21
-3494.809
 31
0.0
  0
LINE
  8
0
 10
2764.724
 20
-3494.809
 30
0.0
 11
2540
 21
-3244.883
 31
0.0
  0
LINE
  8
0
 10
2540
 20
-3244.883
 30
0.0
 11
2540
 21
-2700.792
 31
0.0
  0
LINE
  8
0
 10
2540
 20
-2700.792
 30
0.0
 11
2237.221
 21
-2585.04
 31
0.0
  0
LINE
  8
0
 10
2237.221
 20
-2585.04
 30
0.0
 11
1973.952
 21
-2654.905
 31
0.0
  0
LINE
  8
0
 10
1973.952
 20
-2654.905
 30
0.0
 11
2167.305
 21
-2883.787
 31
0.0
  0
LINE
  8
0
 10
2167.305
 20
-2883.787
 30
0.0
 11
2167.305
 21
-3347.913
 31
0.0
  0
LINE
  8
0
 10
2167.305
 20
-3347.913
 30
0.0
 11
1973.69
 21
-3619.987
 31
0.0
  0
LINE
  8
0
 10
1973.69
 20
-3619.987
 30
0.0
 11
1723.695
 21
-3377.635
 31
0.0
  0
LINE
  8
0
 10
1723.695
 20
-3377.635
 30
0.0
 11
1778
 21
-2766.626
 31
0.0
  0
LINE
  8
0
 10
1778
 20
-2766.626
 30
0.0
 11
1445.901
 21
-2972.018
 31
0.0
  0
LINE
  8
0
 10
1445.901
 20
-2972.018
 30
0.0
 11
1723.695
 21
-3377.635
 31
0.0
  0
LINE
  8
0
 10
1723.695
 20
-3377.635
 30
0.0
 11
1240.724
 21
-3494.809
 31
0.0
  0
LINE
  8
0
 10
1240.724
 20
-3494.809
 30
0.0
 11
1723.695
 21
-3787.165
 31
0.0
  0
LINE
  8
0
 10
1723.695
 20
-3787.165
 30
0.0
 11
1973.69
 21
-3619.987
 31
0.0
  0
LINE
  8
0
 10
1973.69
 20
-3619.987
 30
0.0
 11
2418.861
 21
-3877.862
 31
0.0
  0
LINE
  8
0
 10
2418.861
 20
-3877.862
 30
0.0
 11
2764.724
 21
-3494.809
 31
0.0
  0
LINE
  8
0
 10
2764.724
 20
-3494.809
 30
0.0
 11
3048
 21
-4051.905
 31
0.0
  0
LINE
  8
0
 10
3048
 20
-4051.905
 30
0.0
 11
2715.946
 21
-4205.731
 31
0.0
  0
LINE
  8
0
 10
2715.946
 20
-4205.731
 30
0.0
 11
2569.243
 21
-4156.156
 31
0.0
  0
LINE
  8
0
 10
2569.243
 20
-4156.156
 30
0.0
 11
2418.861
 21
-3877.862
 31
0.0
  0
LINE
  8
0
 10
2418.861
 20
-3877.862
 30
0.0
 11
1973.952
 21
-4377.635
 31
0.0
  0
LINE
  8
0
 10
1973.952
 20
-4377.635
 30
0.0
 11
1723.695
 21
-3787.165
 31
0.0
  0
CIRCLE
  8
0
 10
1000
 20
7000
 30
0.0
 40
100
  0
CIRCLE
  8
0
 10
4000
 20
7000
 30
0.0
 40
100
  0
CIRCLE
  8
0
 10
7000
 20
7000
 30
0.0
 40
100
  0
CIRCLE
  8
0
 10
100
 20
100
 30
0.0
 40
128
  0
CIRCLE
  8
0
 10
200
 20
200
 30
0.0
 40
181
  0
CIRCLE
  8
0
 10
300
 20
300
 30
0.0
 40
190
  0
CIRCLE
  8
0
 10
350
 20
350
 30
0.0
 40
200
  0
CIRCLE
  8
0
 10
360
 20
360
 30
0.0
 40
200
  0
CIRCLE
  8
0
 10
370
 20
370
 30
0.0
 40
200
  0
ENDSEC
  0
EOF
