  0
SECTION
  2
ENTITIES
  0
ARC
  8
0
 10
36.93586
 20
-198.5051
 30
0.0
 40
201.9122
 50
100.5393
 51
178.9098
  0
ARC
  8
0
 10
36.93588
 20
-190.8224
 30
0.0
 40
201.9122
 50
181.0899
 51
259.4605
  0
ARC
  8
0
 10
36.93588
 20
-190.8224
 30
0.0
 40
201.9122
 50
181.0899
 51
259.4605
  0
ARC
  8
0
 10
36.93586
 20
-198.5051
 30
0.0
 40
201.9122
 50
100.5393
 51
178.9098
  0
ARC
  8
0
 10
34.62118
 20
-509.0734
 30
0.0
 40
510.2496
 50
93.89021
 51
110.5105
  0
ARC
  8
0
 10
-64.69489
 20
-209.8378
 30
0.0
 40
195.5432
 50
113.978
 51
175.5479
  0
ARC
  8
0
 10
-64.6943
 20
-179.4869
 30
0.0
 40
195.5432
 50
184.4499
 51
246.0198
  0
ARC
  8
0
 10
34.63395
 20
119.7448
 30
0.0
 40
510.2496
 50
249.4873
 51
266.1076
  0
ARC
  8
0
 10
-76.47412
 20
-783.2518
 30
0.0
 40
401.2774
 50
35.53043
 51
79.01438
  0
ARC
  8
0
 10
47.29603
 20
-691.4863
 30
0.0
 40
247.2395
 50
357.7662
 51
34.89255
  0
ARC
  8
0
 10
-27.29499
 20
-668.6948
 30
0.0
 40
323.2733
 50
314.5428
 51
354.2426
  0
ARC
  8
0
 10
-199.0037
 20
-503.3594
 30
0.0
 40
561.5925
 50
290.6992
 51
315.1964
  0
ARC
  8
0
 10
-199.0037
 20
-503.3594
 30
0.0
 40
561.5925
 50
290.6992
 51
315.1964
  0
ARC
  8
0
 10
-27.29499
 20
-668.6948
 30
0.0
 40
323.2733
 50
314.5428
 51
354.2426
  0
ARC
  8
0
 10
47.29603
 20
-691.4863
 30
0.0
 40
247.2395
 50
357.7662
 51
34.89255
  0
ARC
  8
0
 10
-76.47412
 20
-783.2518
 30
0.0
 40
401.2774
 50
35.53043
 51
79.01438
  0
ARC
  8
0
 10
37.22384
 20
-1574.165
 30
0.0
 40
1185.422
 50
71.54391
 51
91.79965
  0
ARC
  8
0
 10
313.5359
 20
-724.5924
 30
0.0
 40
292.152
 50
7.096185
 51
70.19913
  0
ARC
  8
0
 10
367.1763
 20
-684.7535
 30
0.0
 40
236.3035
 50
293.343
 51
359.0915
  0
ARC
  8
0
 10
-124.1394
 20
321.8672
 30
0.0
 40
1356.214
 50
275.2308
 51
295.5509
  0
CIRCLE
  8
0
 10
1000
 20
7000
 30
0.0
 40
100
  0
CIRCLE
  8
0
 10
2500
 20
6000
 30
0.0
 40
100
  0
CIRCLE
  8
0
 10
4000
 20
7000
 30
0.0
 40
100
  0
CIRCLE
  8
0
 10
100
 20
100
 30
0.0
 40
128
  0
CIRCLE
  8
0
 10
200
 20
200
 30
0.0
 40
185
  0
CIRCLE
  8
0
 10
300
 20
300
 30
0.0
 40
203
  0
CIRCLE
  8
0
 10
350
 20
350
 30
0.0
 40
202
  0
CIRCLE
  8
0
 10
360
 20
360
 30
0.0
 40
200
  0
CIRCLE
  8
0
 10
370
 20
370
 30
0.0
 40
200
  0
ENDSEC
  0
EOF
