  0
SECTION
  2
ENTITIES
  0
ARC
  8
0
 10
480.9268
 20
-510.894
 30
0.0
 40
511.5522
 50
87.09337
 51
160.0738
  0
ARC
  8
0
 10
-480.9264
 20
-162.2059
 30
0.0
 40
511.5522
 50
267.0934
 51
340.0736
  0
ARC
  8
0
 10
-480.9264
 20
-1183.994
 30
0.0
 40
511.5522
 50
19.92661
 51
92.90678
  0
ARC
  8
0
 10
480.9268
 20
-835.3058
 30
0.0
 40
511.5522
 50
199.9263
 51
272.9066
  0
CIRCLE
  8
0
 10
1000
 20
6000
 30
0.0
 40
100
  0
CIRCLE
  8
0
 10
2000
 20
8000
 30
0.0
 40
100
  0
CIRCLE
  8
0
 10
3000
 20
6000
 30
0.0
 40
100
  0
CIRCLE
  8
0
 10
100
 20
100
 30
0.0
 40
128
  0
CIRCLE
  8
0
 10
200
 20
200
 30
0.0
 40
200
  0
CIRCLE
  8
0
 10
300
 20
300
 30
0.0
 40
174
  0
CIRCLE
  8
0
 10
350
 20
350
 30
0.0
 40
202
  0
CIRCLE
  8
0
 10
360
 20
360
 30
0.0
 40
200
  0
CIRCLE
  8
0
 10
370
 20
370
 30
0.0
 40
200
  0
ENDSEC
  0
EOF
