  0
SECTION
  2
ENTITIES
  0
ARC
  8
0
 10
-308.9523
 20
766.3587
 30
0.0
 40
320.7334
 50
298.6841
 51
359.22
  0
LINE
  8
0
 10
-155.0074
 20
484.9855
 30
0.0
 11
-478.0627
 21
276.9913
 31
0.0
  0
ARC
  8
0
 10
-324.1266
 20
-4.386692
 30
0.0
 40
320.7334
 50
118.6823
 51
179.2181
  0
ARC
  8
0
 10
-324.1265
 20
4.368658
 30
0.0
 40
320.7334
 50
180.7821
 51
241.3179
  0
LINE
  8
0
 10
-478.0627
 20
-277.0093
 30
0.0
 11
-155.0074
 21
-485.0035
 31
0.0
  0
ARC
  8
0
 10
-308.9523
 20
-766.3767
 30
0.0
 40
320.7334
 50
0.7802717
 51
61.3161
  0
CIRCLE
  8
0
 10
1000
 20
7000
 30
0.0
 40
100
  0
CIRCLE
  8
0
 10
2500
 20
8000
 30
0.0
 40
100
  0
CIRCLE
  8
0
 10
4000
 20
7000
 30
0.0
 40
100
  0
CIRCLE
  8
0
 10
100
 20
100
 30
0.0
 40
128
  0
CIRCLE
  8
0
 10
200
 20
200
 30
0.0
 40
194
  0
CIRCLE
  8
0
 10
300
 20
300
 30
0.0
 40
174
  0
CIRCLE
  8
0
 10
350
 20
350
 30
0.0
 40
200
  0
CIRCLE
  8
0
 10
360
 20
360
 30
0.0
 40
200
  0
CIRCLE
  8
0
 10
370
 20
370
 30
0.0
 40
200
  0
ENDSEC
  0
EOF
