  0
SECTION
  2
ENTITIES
  0
LINE
  8
0
 10
5196.907
 20
1535.113
 30
0.0
 11
5096.907
 21
1535.113
 31
0.0
  0
LINE
  8
0
 10
5096.907
 20
1535.113
 30
0.0
 11
5021.907
 21
1605.113
 31
0.0
  0
LINE
  8
0
 10
5021.907
 20
1605.113
 30
0.0
 11
5096.907
 21
1535.113
 31
0.0
  0
LINE
  8
0
 10
5096.907
 20
1535.113
 30
0.0
 11
5026.443
 21
1465.113
 31
0.0
  0
LINE
  8
0
 10
5026.443
 20
1465.113
 30
0.0
 11
5096.907
 21
1535.113
 31
0.0
  0
LINE
  8
0
 10
5096.907
 20
1535.113
 30
0.0
 11
5046.907
 21
1535.113
 31
0.0
  0
LINE
  8
0
 10
5046.907
 20
1535.113
 30
0.0
 11
4971.907
 21
1605.113
 31
0.0
  0
LINE
  8
0
 10
4971.907
 20
1605.113
 30
0.0
 11
5046.907
 21
1535.113
 31
0.0
  0
LINE
  8
0
 10
5046.907
 20
1535.113
 30
0.0
 11
4976.443
 21
1465.113
 31
0.0
  0
LINE
  8
0
 10
4976.443
 20
1465.113
 30
0.0
 11
5046.907
 21
1535.113
 31
0.0
  0
LINE
  8
0
 10
5046.907
 20
1535.113
 30
0.0
 11
4996.907
 21
1535.113
 31
0.0
  0
LINE
  8
0
 10
4996.907
 20
1535.113
 30
0.0
 11
4921.907
 21
1605.113
 31
0.0
  0
LINE
  8
0
 10
4921.907
 20
1605.113
 30
0.0
 11
4996.907
 21
1535.113
 31
0.0
  0
LINE
  8
0
 10
4996.907
 20
1535.113
 30
0.0
 11
4926.443
 21
1465.113
 31
0.0
  0
LINE
  8
0
 10
4926.443
 20
1465.113
 30
0.0
 11
4996.907
 21
1535.113
 31
0.0
  0
LINE
  8
0
 10
4996.907
 20
1535.113
 30
0.0
 11
5046.907
 21
1535.113
 31
0.0
  0
LINE
  8
0
 10
5046.907
 20
1535.113
 30
0.0
 11
5096.907
 21
1535.113
 31
0.0
  0
LINE
  8
0
 10
5096.907
 20
1535.113
 30
0.0
 11
5196.907
 21
1535.113
 31
0.0
  0
LINE
  8
0
 10
5196.907
 20
1535.113
 30
0.0
 11
5196.907
 21
1435.113
 31
0.0
  0
LINE
  8
0
 10
5196.907
 20
1435.113
 30
0.0
 11
5126.907
 21
1364.653
 31
0.0
  0
LINE
  8
0
 10
5126.907
 20
1364.653
 30
0.0
 11
5196.907
 21
1435.113
 31
0.0
  0
LINE
  8
0
 10
5196.907
 20
1435.113
 30
0.0
 11
5266.907
 21
1360.113
 31
0.0
  0
LINE
  8
0
 10
5266.907
 20
1360.113
 30
0.0
 11
5196.907
 21
1435.113
 31
0.0
  0
LINE
  8
0
 10
5196.907
 20
1435.113
 30
0.0
 11
5196.907
 21
1385.113
 31
0.0
  0
LINE
  8
0
 10
5196.907
 20
1385.113
 30
0.0
 11
5126.907
 21
1314.653
 31
0.0
  0
LINE
  8
0
 10
5126.907
 20
1314.653
 30
0.0
 11
5196.907
 21
1385.113
 31
0.0
  0
LINE
  8
0
 10
5196.907
 20
1385.113
 30
0.0
 11
5266.907
 21
1310.113
 31
0.0
  0
LINE
  8
0
 10
5266.907
 20
1310.113
 30
0.0
 11
5196.907
 21
1385.113
 31
0.0
  0
LINE
  8
0
 10
5196.907
 20
1385.113
 30
0.0
 11
5196.907
 21
1335.113
 31
0.0
  0
LINE
  8
0
 10
5196.907
 20
1335.113
 30
0.0
 11
5126.907
 21
1264.653
 31
0.0
  0
LINE
  8
0
 10
5126.907
 20
1264.653
 30
0.0
 11
5196.907
 21
1335.113
 31
0.0
  0
LINE
  8
0
 10
5196.907
 20
1335.113
 30
0.0
 11
5266.907
 21
1260.113
 31
0.0
  0
LINE
  8
0
 10
5266.907
 20
1260.113
 30
0.0
 11
5196.907
 21
1335.113
 31
0.0
  0
LINE
  8
0
 10
5196.907
 20
1335.113
 30
0.0
 11
5196.907
 21
1385.113
 31
0.0
  0
LINE
  8
0
 10
5196.907
 20
1385.113
 30
0.0
 11
5196.907
 21
1435.113
 31
0.0
  0
LINE
  8
0
 10
5196.907
 20
1435.113
 30
0.0
 11
5196.907
 21
1535.113
 31
0.0
  0
LINE
  8
0
 10
5196.907
 20
1535.113
 30
0.0
 11
4434.915
 21
773.1124
 31
0.0
  0
LINE
  8
0
 10
4434.915
 20
773.1124
 30
0.0
 11
4434.915
 21
873.1124
 31
0.0
  0
LINE
  8
0
 10
4434.915
 20
873.1124
 30
0.0
 11
4504.915
 21
948.1124
 31
0.0
  0
LINE
  8
0
 10
4504.915
 20
948.1124
 30
0.0
 11
4434.915
 21
873.1124
 31
0.0
  0
LINE
  8
0
 10
4434.915
 20
873.1124
 30
0.0
 11
4364.915
 21
943.5726
 31
0.0
  0
LINE
  8
0
 10
4364.915
 20
943.5726
 30
0.0
 11
4434.915
 21
873.1124
 31
0.0
  0
LINE
  8
0
 10
4434.915
 20
873.1124
 30
0.0
 11
4434.915
 21
923.1124
 31
0.0
  0
LINE
  8
0
 10
4434.915
 20
923.1124
 30
0.0
 11
4504.915
 21
998.1124
 31
0.0
  0
LINE
  8
0
 10
4504.915
 20
998.1124
 30
0.0
 11
4434.915
 21
923.1124
 31
0.0
  0
LINE
  8
0
 10
4434.915
 20
923.1124
 30
0.0
 11
4364.915
 21
993.5726
 31
0.0
  0
LINE
  8
0
 10
4364.915
 20
993.5726
 30
0.0
 11
4434.915
 21
923.1124
 31
0.0
  0
LINE
  8
0
 10
4434.915
 20
923.1124
 30
0.0
 11
4434.915
 21
973.1124
 31
0.0
  0
LINE
  8
0
 10
4434.915
 20
973.1124
 30
0.0
 11
4504.915
 21
1048.112
 31
0.0
  0
LINE
  8
0
 10
4504.915
 20
1048.112
 30
0.0
 11
4434.915
 21
973.1124
 31
0.0
  0
LINE
  8
0
 10
4434.915
 20
973.1124
 30
0.0
 11
4364.915
 21
1043.573
 31
0.0
  0
LINE
  8
0
 10
4364.915
 20
1043.573
 30
0.0
 11
4434.915
 21
973.1124
 31
0.0
  0
LINE
  8
0
 10
4434.915
 20
973.1124
 30
0.0
 11
4434.915
 21
923.1124
 31
0.0
  0
LINE
  8
0
 10
4434.915
 20
923.1124
 30
0.0
 11
4434.915
 21
873.1124
 31
0.0
  0
LINE
  8
0
 10
4434.915
 20
873.1124
 30
0.0
 11
4434.915
 21
773.1124
 31
0.0
  0
LINE
  8
0
 10
4434.915
 20
773.1124
 30
0.0
 11
4534.915
 21
773.1124
 31
0.0
  0
LINE
  8
0
 10
4534.915
 20
773.1124
 30
0.0
 11
4605.364
 21
703.1124
 31
0.0
  0
LINE
  8
0
 10
4605.364
 20
703.1124
 30
0.0
 11
4534.915
 21
773.1124
 31
0.0
  0
LINE
  8
0
 10
4534.915
 20
773.1124
 30
0.0
 11
4609.915
 21
843.1124
 31
0.0
  0
LINE
  8
0
 10
4609.915
 20
843.1124
 30
0.0
 11
4534.915
 21
773.1124
 31
0.0
  0
LINE
  8
0
 10
4534.915
 20
773.1124
 30
0.0
 11
4584.915
 21
773.1124
 31
0.0
  0
LINE
  8
0
 10
4584.915
 20
773.1124
 30
0.0
 11
4655.364
 21
703.1124
 31
0.0
  0
LINE
  8
0
 10
4655.364
 20
703.1124
 30
0.0
 11
4584.915
 21
773.1124
 31
0.0
  0
LINE
  8
0
 10
4584.915
 20
773.1124
 30
0.0
 11
4659.915
 21
843.1124
 31
0.0
  0
LINE
  8
0
 10
4659.915
 20
843.1124
 30
0.0
 11
4584.915
 21
773.1124
 31
0.0
  0
LINE
  8
0
 10
4584.915
 20
773.1124
 30
0.0
 11
4634.915
 21
773.1124
 31
0.0
  0
LINE
  8
0
 10
4634.915
 20
773.1124
 30
0.0
 11
4705.364
 21
703.1124
 31
0.0
  0
LINE
  8
0
 10
4705.364
 20
703.1124
 30
0.0
 11
4634.915
 21
773.1124
 31
0.0
  0
LINE
  8
0
 10
4634.915
 20
773.1124
 30
0.0
 11
4709.915
 21
843.1124
 31
0.0
  0
LINE
  8
0
 10
4709.915
 20
843.1124
 30
0.0
 11
4634.915
 21
773.1124
 31
0.0
  0
LINE
  8
0
 10
4634.915
 20
773.1124
 30
0.0
 11
4584.915
 21
773.1124
 31
0.0
  0
LINE
  8
0
 10
4584.915
 20
773.1124
 30
0.0
 11
4534.915
 21
773.1124
 31
0.0
  0
LINE
  8
0
 10
4534.915
 20
773.1124
 30
0.0
 11
4434.915
 21
773.1124
 31
0.0
  0
LINE
  8
0
 10
4434.915
 20
773.1124
 30
0.0
 11
5196.907
 21
11.11306
 31
0.0
  0
CIRCLE
  8
0
 10
1000
 20
7000
 30
0.0
 40
100
  0
CIRCLE
  8
0
 10
2500
 20
8000
 30
0.0
 40
100
  0
CIRCLE
  8
0
 10
4000
 20
7000
 30
0.0
 40
100
  0
CIRCLE
  8
0
 10
100
 20
100
 30
0.0
 40
125
  0
CIRCLE
  8
0
 10
200
 20
200
 30
0.0
 40
200
  0
CIRCLE
  8
0
 10
300
 20
300
 30
0.0
 40
200
  0
CIRCLE
  8
0
 10
350
 20
350
 30
0.0
 40
200
  0
CIRCLE
  8
0
 10
360
 20
360
 30
0.0
 40
200
  0
CIRCLE
  8
0
 10
370
 20
370
 30
0.0
 40
200
  0
ENDSEC
  0
EOF
