  0
SECTION
  2
ENTITIES
  0
ARC
  8
0
 10
-715.7049
 20
-18.49858
 30
0.0
 40
715.9467
 50
310.3673
 51
1.481045
  0
LINE
  8
0
 10
-251.9985
 20
-563.986
 30
0.0
 11
-763.9911
 21
-959.9886
 31
0.0
  0
ARC
  8
0
 10
-300.283
 20
-1505.475
 30
0.0
 40
715.9467
 50
130.3674
 51
181.481
  0
ARC
  8
0
 10
-300.283
 20
-1542.498
 30
0.0
 40
715.9467
 50
178.5191
 51
229.6327
  0
LINE
  8
0
 10
-763.9911
 20
-2087.985
 30
0.0
 11
-251.9985
 21
-2483.987
 31
0.0
  0
ARC
  8
0
 10
-715.7049
 20
-3029.473
 30
0.0
 40
715.9467
 50
358.5189
 51
49.63293
  0
CIRCLE
  8
0
 10
1000
 20
8000
 30
0.0
 40
100
  0
CIRCLE
  8
0
 10
2000
 20
8000
 30
0.0
 40
100
  0
CIRCLE
  8
0
 10
3500
 20
6000
 30
0.0
 40
100
  0
CIRCLE
  8
0
 10
4500
 20
6000
 30
0.0
 40
100
  0
CIRCLE
  8
0
 10
6000
 20
8000
 30
0.0
 40
100
  0
CIRCLE
  8
0
 10
100
 20
100
 30
0.0
 40
129
  0
CIRCLE
  8
0
 10
200
 20
200
 30
0.0
 40
200
  0
CIRCLE
  8
0
 10
300
 20
300
 30
0.0
 40
200
  0
CIRCLE
  8
0
 10
350
 20
350
 30
0.0
 40
200
  0
CIRCLE
  8
0
 10
360
 20
360
 30
0.0
 40
200
  0
CIRCLE
  8
0
 10
370
 20
370
 30
0.0
 40
200
  0
ENDSEC
  0
EOF
