  0
SECTION
  2
ENTITIES
  0
ARC
  8
0
 10
-751.8807
 20
1038.205
 30
0.0
 40
955.3413
 50
326.2901
 51
358.6685
  0
ARC
  8
0
 10
837.5306
 20
-22.20794
 30
0.0
 40
955.3413
 50
146.2898
 51
178.6681
  0
ARC
  8
0
 10
837.5305
 20
22.21177
 30
0.0
 40
955.3413
 50
181.3323
 51
213.7107
  0
ARC
  8
0
 10
-751.8745
 20
-1038.21
 30
0.0
 40
955.3413
 50
1.332166
 51
33.71051
  0
CIRCLE
  8
0
 10
1000
 20
7000
 30
0.0
 40
100
  0
CIRCLE
  8
0
 10
2000
 20
7000
 30
0.0
 40
100
  0
CIRCLE
  8
0
 10
3000
 20
7000
 30
0.0
 40
100
  0
CIRCLE
  8
0
 10
100
 20
100
 30
0.0
 40
128
  0
CIRCLE
  8
0
 10
200
 20
200
 30
0.0
 40
200
  0
CIRCLE
  8
0
 10
300
 20
300
 30
0.0
 40
200
  0
CIRCLE
  8
0
 10
350
 20
350
 30
0.0
 40
200
  0
CIRCLE
  8
0
 10
360
 20
360
 30
0.0
 40
200
  0
CIRCLE
  8
0
 10
370
 20
370
 30
0.0
 40
200
  0
ENDSEC
  0
EOF
