  0
SECTION
  2
ENTITIES
  0
ARC
  8
0
 10
464.9499
 20
873.9413
 30
0.0
 40
251.1003
 50
325.5433
 51
34.45651
  0
ARC
  8
0
 10
648.3276
 20
741.2822
 30
0.0
 40
25.47028
 50
197.0084
 51
338.3188
  0
ARC
  8
0
 10
234.3804
 20
540.6937
 30
0.0
 40
434.8373
 50
26.36975
 51
54.33123
  0
ARC
  8
0
 10
380.8113
 20
700.5625
 30
0.0
 40
221.0797
 50
61.01759
 51
153.002
  0
ARC
  8
0
 10
610.5325
 20
684.4483
 30
0.0
 40
442.3193
 50
164.7325
 51
232.057
  0
ARC
  8
0
 10
-425.5035
 20
-804.8815
 30
0.0
 40
1372.789
 50
35.86467
 51
56.1806
  0
ARC
  8
0
 10
857.1334
 20
-146.7309
 30
0.0
 40
224.2673
 50
139.3391
 51
217.9714
  0
ARC
  8
0
 10
703.9069
 20
-275.0569
 30
0.0
 40
25.47028
 50
202.2846
 51
343.5951
  0
ARC
  8
0
 10
1117.931
 20
-475.3882
 30
0.0
 40
434.8373
 50
125.669
 51
153.6304
  0
ARC
  8
0
 10
971.4999
 20
-315.5199
 30
0.0
 40
221.0797
 50
26.99839
 51
118.9826
  0
ARC
  8
0
 10
741.7789
 20
-331.6349
 30
0.0
 40
442.3193
 50
307.9433
 51
15.2679
  0
ARC
  8
0
 10
1625.175
 20
-1645.026
 30
0.0
 40
1142.029
 50
122.3698
 51
146.5779
  0
CIRCLE
  8
0
 10
1000
 20
6000
 30
0.0
 40
100
  0
CIRCLE
  8
0
 10
1000
 20
8000
 30
0.0
 40
100
  0
CIRCLE
  8
0
 10
3000
 20
6000
 30
0.0
 40
100
  0
CIRCLE
  8
0
 10
3000
 20
8000
 30
0.0
 40
100
  0
CIRCLE
  8
0
 10
5000
 20
6000
 30
0.0
 40
100
  0
CIRCLE
  8
0
 10
5000
 20
8000
 30
0.0
 40
100
  0
CIRCLE
  8
0
 10
100
 20
100
 30
0.0
 40
125
  0
CIRCLE
  8
0
 10
200
 20
200
 30
0.0
 40
179
  0
CIRCLE
  8
0
 10
300
 20
300
 30
0.0
 40
173
  0
CIRCLE
  8
0
 10
350
 20
350
 30
0.0
 40
200
  0
CIRCLE
  8
0
 10
360
 20
360
 30
0.0
 40
200
  0
CIRCLE
  8
0
 10
370
 20
370
 30
0.0
 40
200
  0
ENDSEC
  0
EOF
