  0
SECTION
  2
ENTITIES
  0
ARC
  8
0
 10
-2018.213
 20
1510.207
 30
0.0
 40
494.4008
 50
268.4012
 51
1.597789
  0
ARC
  8
0
 10
-2045.796
 20
521.7892
 30
0.0
 40
494.4008
 50
88.40207
 51
181.5988
  0
ARC
  8
0
 10
-2526.22
 20
13.78743
 30
0.0
 40
494.4008
 50
358.4014
 51
91.5978
  0
ARC
  8
0
 10
-1537.801
 20
-13.79936
 30
0.0
 40
494.4008
 50
178.4014
 51
271.5979
  0
ARC
  8
0
 10
-2018.225
 20
-521.7933
 30
0.0
 40
494.4008
 50
268.4012
 51
1.597789
  0
ARC
  8
0
 10
-2045.808
 20
-1510.211
 30
0.0
 40
494.4008
 50
88.40207
 51
181.5988
  0
ARC
  8
0
 10
-2526.23
 20
-2018.212
 30
0.0
 40
494.4008
 50
358.4014
 51
91.5978
  0
ARC
  8
0
 10
-1537.813
 20
-2045.799
 30
0.0
 40
494.4008
 50
178.4014
 51
271.5979
  0
CIRCLE
  8
0
 10
1000
 20
6000
 30
0.0
 40
100
  0
CIRCLE
  8
0
 10
3000
 20
8000
 30
0.0
 40
100
  0
CIRCLE
  8
0
 10
5000
 20
6000
 30
0.0
 40
100
  0
CIRCLE
  8
0
 10
100
 20
100
 30
0.0
 40
126
  0
CIRCLE
  8
0
 10
200
 20
200
 30
0.0
 40
192
  0
CIRCLE
  8
0
 10
300
 20
300
 30
0.0
 40
171
  0
CIRCLE
  8
0
 10
350
 20
350
 30
0.0
 40
200
  0
CIRCLE
  8
0
 10
360
 20
360
 30
0.0
 40
200
  0
CIRCLE
  8
0
 10
370
 20
370
 30
0.0
 40
200
  0
ENDSEC
  0
EOF
