  0
SECTION
  2
ENTITIES
  0
ARC
  8
0
 10
133.4323
 20
312.6718
 30
0.0
 40
127.982
 50
339.6526
 51
19.59828
  0
ARC
  8
0
 10
199.1813
 20
289.796
 30
0.0
 40
58.39858
 50
171.471
 51
338.2657
  0
ARC
  8
0
 10
85.20044
 20
283.9274
 30
0.0
 40
58.0751
 50
14.48881
 51
140.6592
  0
ARC
  8
0
 10
103.5617
 20
294.3094
 30
0.0
 40
68.57536
 50
157.3271
 51
236.2151
  0
ARC
  8
0
 10
5.934097
 20
123.4792
 30
0.0
 40
128.4448
 50
62.4069
 51
141.0807
  0
ARC
  8
0
 10
-54.54244
 20
169.3842
 30
0.0
 40
52.60274
 50
138.599
 51
239.2613
  0
ARC
  8
0
 10
-8.097841
 20
258.3681
 30
0.0
 40
152.9253
 50
241.3459
 51
285.5338
  0
ARC
  8
0
 10
103.4176
 20
54.7483
 30
0.0
 40
90.25695
 50
141.4236
 51
202.9187
  0
ARC
  8
0
 10
77.96343
 20
66.52216
 30
0.0
 40
74.35321
 50
219.1288
 51
334.9244
  0
ARC
  8
0
 10
201.6561
 20
20.49873
 30
0.0
 40
58.0751
 50
39.34093
 51
165.5112
  0
ARC
  8
0
 10
183.2948
 20
30.88072
 30
0.0
 40
68.57536
 50
303.785
 51
22.67306
  0
ARC
  8
0
 10
280.9224
 20
-139.9497
 30
0.0
 40
128.4448
 50
38.91951
 51
117.5931
  0
ARC
  8
0
 10
341.399
 20
-94.04458
 30
0.0
 40
52.60274
 50
300.7388
 51
41.40119
  0
ARC
  8
0
 10
294.9544
 20
-5.060703
 30
0.0
 40
152.9253
 50
254.4664
 51
298.6542
  0
CIRCLE
  8
0
 10
1000
 20
7000
 30
0.0
 40
100
  0
CIRCLE
  8
0
 10
2000
 20
7000
 30
0.0
 40
100
  0
CIRCLE
  8
0
 10
100
 20
100
 30
0.0
 40
127
  0
CIRCLE
  8
0
 10
200
 20
200
 30
0.0
 40
200
  0
CIRCLE
  8
0
 10
300
 20
300
 30
0.0
 40
200
  0
CIRCLE
  8
0
 10
350
 20
350
 30
0.0
 40
200
  0
CIRCLE
  8
0
 10
360
 20
360
 30
0.0
 40
200
  0
CIRCLE
  8
0
 10
370
 20
370
 30
0.0
 40
200
  0
ENDSEC
  0
EOF
