  0
SECTION
  2
ENTITIES
  0
ARC
  8
0
 10
203.4679
 20
838.4669
 30
0.0
 40
217.3626
 50
200.5973
 51
249.4025
  0
ARC
  8
0
 10
190.4993
 20
633.2123
 30
0.0
 40
63.52528
 50
1.611891
 51
178.3879
  0
ARC
  8
0
 10
185.2391
 20
640.2598
 30
0.0
 40
68.96123
 50
274.3743
 51
355.6251
  0
ARC
  8
0
 10
200.9723
 20
772.4719
 30
0.0
 40
201.2453
 50
182.9828
 51
267.0168
  0
ARC
  8
0
 10
200.9723
 20
772.4719
 30
0.0
 40
201.2453
 50
182.9828
 51
267.0168
  0
ARC
  8
0
 10
195.7575
 20
502.739
 30
0.0
 40
68.96123
 50
94.37389
 51
175.6248
  0
ARC
  8
0
 10
190.4974
 20
509.7865
 30
0.0
 40
63.52528
 50
181.6122
 51
358.3879
  0
ARC
  8
0
 10
177.5286
 20
304.5319
 30
0.0
 40
217.3626
 50
20.59722
 51
69.40255
  0
ARC
  8
0
 10
180.0242
 20
370.5269
 30
0.0
 40
201.2453
 50
2.982734
 51
87.01671
  0
ARC
  8
0
 10
180.0242
 20
370.5269
 30
0.0
 40
201.2453
 50
2.982734
 51
87.01671
  0
ARC
  8
0
 10
584.4652
 20
457.4643
 30
0.0
 40
217.3626
 50
200.5973
 51
249.4025
  0
ARC
  8
0
 10
571.4965
 20
252.2096
 30
0.0
 40
63.52528
 50
1.611891
 51
178.3879
  0
ARC
  8
0
 10
566.2364
 20
259.2571
 30
0.0
 40
68.96123
 50
274.3743
 51
355.6251
  0
ARC
  8
0
 10
581.9696
 20
391.4692
 30
0.0
 40
201.2453
 50
182.9828
 51
267.0168
  0
ARC
  8
0
 10
581.9696
 20
391.4692
 30
0.0
 40
201.2453
 50
182.9828
 51
267.0168
  0
ARC
  8
0
 10
576.7548
 20
121.7364
 30
0.0
 40
68.96123
 50
94.37389
 51
175.6248
  0
ARC
  8
0
 10
571.4947
 20
128.7838
 30
0.0
 40
63.52528
 50
181.6122
 51
358.3879
  0
ARC
  8
0
 10
558.5258
 20
-76.4708
 30
0.0
 40
217.3626
 50
20.59722
 51
69.40255
  0
ARC
  8
0
 10
561.0214
 20
-10.47578
 30
0.0
 40
201.2453
 50
2.982734
 51
87.01671
  0
ARC
  8
0
 10
561.0214
 20
-10.47578
 30
0.0
 40
201.2453
 50
2.982734
 51
87.01671
  0
ARC
  8
0
 10
558.5262
 20
76.46506
 30
0.0
 40
217.3626
 50
290.5971
 51
339.4024
  0
ARC
  8
0
 10
571.4939
 20
-128.7896
 30
0.0
 40
63.52528
 50
1.612063
 51
178.3876
  0
ARC
  8
0
 10
576.754
 20
-121.7422
 30
0.0
 40
68.96123
 50
184.375
 51
265.6259
  0
ARC
  8
0
 10
561.0215
 20
10.47003
 30
0.0
 40
201.2453
 50
272.9829
 51
357.0169
  0
ARC
  8
0
 10
561.0215
 20
10.47003
 30
0.0
 40
201.2453
 50
272.9829
 51
357.0169
  0
ARC
  8
0
 10
566.2348
 20
-259.2628
 30
0.0
 40
68.96123
 50
4.374854
 51
85.62569
  0
ARC
  8
0
 10
571.495
 20
-252.2155
 30
0.0
 40
63.52528
 50
181.6119
 51
358.3878
  0
ARC
  8
0
 10
584.4625
 20
-457.4701
 30
0.0
 40
217.3626
 50
110.5972
 51
159.4025
  0
ARC
  8
0
 10
581.9672
 20
-391.4751
 30
0.0
 40
201.2453
 50
92.98304
 51
177.0171
  0
ARC
  8
0
 10
581.9672
 20
-391.4751
 30
0.0
 40
201.2453
 50
92.98304
 51
177.0171
  0
ARC
  8
0
 10
177.5272
 20
-304.5323
 30
0.0
 40
217.3626
 50
290.5971
 51
339.4024
  0
ARC
  8
0
 10
190.4948
 20
-509.7869
 30
0.0
 40
63.52528
 50
1.612063
 51
178.3876
  0
ARC
  8
0
 10
195.7549
 20
-502.7395
 30
0.0
 40
68.96123
 50
184.375
 51
265.6259
  0
ARC
  8
0
 10
180.0224
 20
-370.5273
 30
0.0
 40
201.2453
 50
272.9829
 51
357.0169
  0
ARC
  8
0
 10
180.0224
 20
-370.5273
 30
0.0
 40
201.2453
 50
272.9829
 51
357.0169
  0
ARC
  8
0
 10
185.2357
 20
-640.2601
 30
0.0
 40
68.96123
 50
4.374854
 51
85.62569
  0
ARC
  8
0
 10
190.4958
 20
-633.2128
 30
0.0
 40
63.52528
 50
181.6119
 51
358.3878
  0
ARC
  8
0
 10
203.4633
 20
-838.4675
 30
0.0
 40
217.3626
 50
110.5972
 51
159.4025
  0
ARC
  8
0
 10
200.9681
 20
-772.4724
 30
0.0
 40
201.2453
 50
92.98304
 51
177.0171
  0
ARC
  8
0
 10
200.9681
 20
-772.4724
 30
0.0
 40
201.2453
 50
92.98304
 51
177.0171
  0
CIRCLE
  8
0
 10
1000
 20
7000
 30
0.0
 40
100
  0
CIRCLE
  8
0
 10
1000
 20
8000
 30
0.0
 40
100
  0
CIRCLE
  8
0
 10
2500
 20
7000
 30
0.0
 40
100
  0
CIRCLE
  8
0
 10
2500
 20
8000
 30
0.0
 40
100
  0
CIRCLE
  8
0
 10
100
 20
100
 30
0.0
 40
125
  0
CIRCLE
  8
0
 10
200
 20
200
 30
0.0
 40
200
  0
CIRCLE
  8
0
 10
300
 20
300
 30
0.0
 40
200
  0
CIRCLE
  8
0
 10
350
 20
350
 30
0.0
 40
200
  0
CIRCLE
  8
0
 10
360
 20
360
 30
0.0
 40
200
  0
CIRCLE
  8
0
 10
370
 20
370
 30
0.0
 40
200
  0
ENDSEC
  0
EOF
