  0
SECTION
  2
ENTITIES
  0
ARC
  8
0
 10
5025.95
 20
2257.82
 30
0.0
 40
141.6027
 50
186.8747
 51
264.4949
  0
ARC
  8
0
 10
5037.019
 20
2018.81
 30
0.0
 40
101.1048
 50
15.15129
 51
104.1113
  0
ARC
  8
0
 10
5073.621
 20
2015.769
 30
0.0
 40
67.73158
 50
205.2657
 51
25.78473
  0
ARC
  8
0
 10
5012.371
 20
2051.869
 30
0.0
 40
64.99992
 50
270
 51
89.99999
  0
ARC
  8
0
 10
5012.371
 20
2051.869
 30
0.0
 40
64.99992
 50
270
 51
89.99999
  0
ARC
  8
0
 10
5139.373
 20
1986.869
 30
0.0
 40
126.9999
 50
180
 51
270
  0
ARC
  8
0
 10
5139.373
 20
1986.869
 30
0.0
 40
126.9999
 50
270
 51
0
  0
ARC
  8
0
 10
5393.371
 20
1986.869
 30
0.0
 40
126.9999
 50
180
 51
270
  0
ARC
  8
0
 10
5393.371
 20
1732.87
 30
0.0
 40
126.9999
 50
89.99999
 51
180
  0
ARC
  8
0
 10
5139.373
 20
1732.87
 30
0.0
 40
126.9999
 50
0
 51
89.99999
  0
ARC
  8
0
 10
5139.373
 20
1732.87
 30
0.0
 40
126.9999
 50
0
 51
89.99999
  0
ARC
  8
0
 10
5393.371
 20
1732.87
 30
0.0
 40
126.9999
 50
89.99999
 51
180
  0
ARC
  8
0
 10
5393.371
 20
1732.87
 30
0.0
 40
126.9999
 50
0
 51
89.99999
  0
ARC
  8
0
 10
5459.118
 20
1703.959
 30
0.0
 40
67.73158
 50
25.26573
 51
205.7847
  0
ARC
  8
0
 10
5495.72
 20
1700.919
 30
0.0
 40
101.1048
 50
195.1513
 51
284.1112
  0
ARC
  8
0
 10
5520.368
 20
1667.87
 30
0.0
 40
64.99992
 50
89.99999
 51
270
  0
ARC
  8
0
 10
5520.368
 20
1667.87
 30
0.0
 40
64.99992
 50
89.99999
 51
270
  0
ARC
  8
0
 10
5506.779
 20
1461.919
 30
0.0
 40
141.6027
 50
6.874696
 51
84.49483
  0
ARC
  8
0
 10
5664.313
 20
1338.286
 30
0.0
 40
141.6027
 50
96.87509
 51
174.4951
  0
ARC
  8
0
 10
5425.314
 20
1327.227
 30
0.0
 40
101.1048
 50
285.1513
 51
14.11122
  0
ARC
  8
0
 10
5422.273
 20
1290.625
 30
0.0
 40
67.73158
 50
115.2654
 51
295.7845
  0
ARC
  8
0
 10
5458.362
 20
1351.875
 30
0.0
 40
64.99992
 50
179.9999
 51
0
  0
ARC
  8
0
 10
5458.362
 20
1351.875
 30
0.0
 40
64.99992
 50
179.9999
 51
0
  0
ARC
  8
0
 10
5393.371
 20
1224.87
 30
0.0
 40
126.9999
 50
90.00017
 51
180.0002
  0
ARC
  8
0
 10
5393.371
 20
1224.87
 30
0.0
 40
126.9999
 50
180
 51
270
  0
ARC
  8
0
 10
5393.371
 20
970.8704
 30
0.0
 40
126.9999
 50
89.99999
 51
180
  0
ARC
  8
0
 10
5139.373
 20
970.8704
 30
0.0
 40
126.9999
 50
0
 51
89.99999
  0
ARC
  8
0
 10
5139.373
 20
1224.87
 30
0.0
 40
126.9999
 50
270
 51
0
  0
ARC
  8
0
 10
5139.373
 20
1224.87
 30
0.0
 40
126.9999
 50
270
 51
0
  0
ARC
  8
0
 10
5139.373
 20
970.8704
 30
0.0
 40
126.9999
 50
0
 51
89.99999
  0
ARC
  8
0
 10
5139.373
 20
970.8707
 30
0.0
 40
126.9999
 50
270
 51
359.9998
  0
ARC
  8
0
 10
5110.46
 20
905.1209
 30
0.0
 40
67.73158
 50
295.2662
 51
115.784
  0
ARC
  8
0
 10
5107.421
 20
868.5189
 30
0.0
 40
101.1048
 50
105.1516
 51
194.1117
  0
ARC
  8
0
 10
5074.373
 20
843.8707
 30
0.0
 40
64.99992
 50
1.614027E-04
 51
180.0001
  0
ARC
  8
0
 10
5074.373
 20
843.8707
 30
0.0
 40
64.99992
 50
1.614027E-04
 51
180.0001
  0
ARC
  8
0
 10
4865.068
 20
857.0114
 30
0.0
 40
141.6027
 50
278.2411
 51
355.8611
  0
CIRCLE
  8
0
 10
1000
 20
7000
 30
0.0
 40
100
  0
CIRCLE
  8
0
 10
2500
 20
8000
 30
0.0
 40
100
  0
CIRCLE
  8
0
 10
4000
 20
7000
 30
0.0
 40
100
  0
CIRCLE
  8
0
 10
100
 20
100
 30
0.0
 40
125
  0
CIRCLE
  8
0
 10
200
 20
200
 30
0.0
 40
200
  0
CIRCLE
  8
0
 10
300
 20
300
 30
0.0
 40
200
  0
CIRCLE
  8
0
 10
350
 20
350
 30
0.0
 40
200
  0
CIRCLE
  8
0
 10
360
 20
360
 30
0.0
 40
200
  0
CIRCLE
  8
0
 10
370
 20
370
 30
0.0
 40
200
  0
ENDSEC
  0
EOF
