  0
SECTION
  2
ENTITIES
  0
ARC
  8
0
 10
2842.717
 20
1224.364
 30
0.0
 40
265.4035
 50
2.411232
 51
87.58795
  0
ARC
  8
0
 10
3255.627
 20
1256.27
 30
0.0
 40
149.187
 50
187.9905
 51
262.0096
  0
ARC
  8
0
 10
3214.15
 20
960.7927
 30
0.0
 40
149.187
 50
7.990492
 51
82.00957
  0
ARC
  8
0
 10
3627.056
 20
992.7003
 30
0.0
 40
265.4035
 50
182.4121
 51
267.5888
  0
ARC
  8
0
 10
3350.719
 20
738.7004
 30
0.0
 40
265.4035
 50
272.412
 51
357.5887
  0
ARC
  8
0
 10
3382.627
 20
325.794
 30
0.0
 40
149.187
 50
97.99059
 51
172.0096
  0
ARC
  8
0
 10
3087.15
 20
367.2703
 30
0.0
 40
149.187
 50
277.9904
 51
352.0095
  0
ARC
  8
0
 10
3119.054
 20
-45.63712
 30
0.0
 40
265.4035
 50
92.41129
 51
177.5881
  0
ARC
  8
0
 10
2842.717
 20
230.6999
 30
0.0
 40
265.4035
 50
272.412
 51
357.5887
  0
ARC
  8
0
 10
3255.627
 20
198.7935
 30
0.0
 40
149.187
 50
97.99059
 51
172.0097
  0
ARC
  8
0
 10
3214.15
 20
494.2709
 30
0.0
 40
149.187
 50
277.9904
 51
352.0095
  0
ARC
  8
0
 10
3627.056
 20
462.3633
 30
0.0
 40
265.4035
 50
92.41129
 51
177.5881
  0
ARC
  8
0
 10
3350.719
 20
716.3632
 30
0.0
 40
265.4035
 50
2.411232
 51
87.58795
  0
ARC
  8
0
 10
3382.627
 20
1129.27
 30
0.0
 40
149.187
 50
187.9905
 51
262.0096
  0
ARC
  8
0
 10
3087.15
 20
1087.793
 30
0.0
 40
149.187
 50
7.990492
 51
82.00957
  0
ARC
  8
0
 10
3119.054
 20
1500.701
 30
0.0
 40
265.4035
 50
182.4121
 51
267.5888
  0
ARC
  8
0
 10
3119.054
 20
1500.701
 30
0.0
 40
265.4035
 50
182.4121
 51
267.5888
  0
ARC
  8
0
 10
3087.15
 20
1087.793
 30
0.0
 40
149.187
 50
7.990492
 51
82.00957
  0
ARC
  8
0
 10
3382.627
 20
1129.27
 30
0.0
 40
149.187
 50
187.9905
 51
262.0096
  0
ARC
  8
0
 10
3350.719
 20
716.3632
 30
0.0
 40
265.4035
 50
2.411232
 51
87.58795
  0
ARC
  8
0
 10
3627.056
 20
462.3633
 30
0.0
 40
265.4035
 50
92.41129
 51
177.5881
  0
ARC
  8
0
 10
3214.15
 20
494.2709
 30
0.0
 40
149.187
 50
277.9904
 51
352.0095
  0
ARC
  8
0
 10
3255.627
 20
198.7935
 30
0.0
 40
149.187
 50
97.99059
 51
172.0097
  0
ARC
  8
0
 10
2842.717
 20
230.6999
 30
0.0
 40
265.4035
 50
272.412
 51
357.5887
  0
CIRCLE
  8
0
 10
1000
 20
7000
 30
0.0
 40
100
  0
CIRCLE
  8
0
 10
2500
 20
8000
 30
0.0
 40
100
  0
CIRCLE
  8
0
 10
4000
 20
7000
 30
0.0
 40
100
  0
CIRCLE
  8
0
 10
100
 20
100
 30
0.0
 40
125
  0
CIRCLE
  8
0
 10
200
 20
200
 30
0.0
 40
200
  0
CIRCLE
  8
0
 10
300
 20
300
 30
0.0
 40
200
  0
CIRCLE
  8
0
 10
350
 20
350
 30
0.0
 40
200
  0
CIRCLE
  8
0
 10
360
 20
360
 30
0.0
 40
200
  0
CIRCLE
  8
0
 10
370
 20
370
 30
0.0
 40
200
  0
ENDSEC
  0
EOF
