  0
SECTION
  2
ENTITIES
  0
ARC
  8
0
 10
5385.791
 20
2431.57
 30
0.0
 40
190.5
 50
0
 51
89.99999
  0
ARC
  8
0
 10
5766.792
 20
2431.57
 30
0.0
 40
190.5
 50
180
 51
270
  0
ARC
  8
0
 10
5774.878
 20
2548.949
 30
0.0
 40
307.981
 50
187.7425
 51
268.4946
  0
ARC
  8
0
 10
5774.878
 20
2548.949
 30
0.0
 40
307.981
 50
187.7425
 51
268.4946
  0
ARC
  8
0
 10
5766.792
 20
2622.07
 30
0.0
 40
380.9999
 50
180
 51
270
  0
ARC
  8
0
 10
5766.792
 20
2622.07
 30
0.0
 40
380.9999
 50
180
 51
270
  0
ARC
  8
0
 10
5758.701
 20
1933.2
 30
0.0
 40
307.981
 50
7.742573
 51
88.4946
  0
ARC
  8
0
 10
5758.701
 20
1933.2
 30
0.0
 40
307.981
 50
7.742573
 51
88.4946
  0
ARC
  8
0
 10
5766.792
 20
2050.569
 30
0.0
 40
190.5
 50
0
 51
89.99999
  0
ARC
  8
0
 10
6147.778
 20
2050.569
 30
0.0
 40
190.5
 50
180
 51
270
  0
ARC
  8
0
 10
5766.792
 20
1860.07
 30
0.0
 40
380.9999
 50
0
 51
89.99999
  0
ARC
  8
0
 10
5766.792
 20
1860.07
 30
0.0
 40
380.9999
 50
0
 51
89.99999
  0
ARC
  8
0
 10
6147.778
 20
1669.57
 30
0.0
 40
190.5
 50
89.99999
 51
180
  0
ARC
  8
0
 10
5766.792
 20
1669.57
 30
0.0
 40
190.5
 50
270
 51
0
  0
ARC
  8
0
 10
5758.701
 20
1786.95
 30
0.0
 40
307.981
 50
271.5054
 51
352.2574
  0
ARC
  8
0
 10
5758.701
 20
1786.95
 30
0.0
 40
307.981
 50
271.5054
 51
352.2574
  0
ARC
  8
0
 10
5766.792
 20
1860.07
 30
0.0
 40
380.9999
 50
270
 51
0
  0
ARC
  8
0
 10
5766.792
 20
1860.07
 30
0.0
 40
380.9999
 50
270
 51
0
  0
ARC
  8
0
 10
5774.878
 20
1171.199
 30
0.0
 40
307.981
 50
91.50539
 51
172.2574
  0
ARC
  8
0
 10
5774.878
 20
1171.199
 30
0.0
 40
307.981
 50
91.50539
 51
172.2574
  0
ARC
  8
0
 10
5766.792
 20
1288.57
 30
0.0
 40
190.5
 50
89.99999
 51
180
  0
ARC
  8
0
 10
5385.791
 20
1288.57
 30
0.0
 40
190.5
 50
270
 51
0
  0
ARC
  8
0
 10
5766.792
 20
1098.07
 30
0.0
 40
380.9999
 50
89.99999
 51
180
  0
ARC
  8
0
 10
5766.792
 20
1098.07
 30
0.0
 40
380.9999
 50
89.99999
 51
180
  0
CIRCLE
  8
0
 10
1000
 20
7000
 30
0.0
 40
100
  0
CIRCLE
  8
0
 10
2500
 20
8000
 30
0.0
 40
100
  0
CIRCLE
  8
0
 10
4000
 20
7000
 30
0.0
 40
100
  0
CIRCLE
  8
0
 10
100
 20
100
 30
0.0
 40
125
  0
CIRCLE
  8
0
 10
200
 20
200
 30
0.0
 40
200
  0
CIRCLE
  8
0
 10
300
 20
300
 30
0.0
 40
200
  0
CIRCLE
  8
0
 10
350
 20
350
 30
0.0
 40
200
  0
CIRCLE
  8
0
 10
360
 20
360
 30
0.0
 40
200
  0
CIRCLE
  8
0
 10
370
 20
370
 30
0.0
 40
200
  0
ENDSEC
  0
EOF
