  0
SECTION
  2
ENTITIES
  0
LINE
  8
0
 10
5597.771
 20
1341.771
 30
0.0
 11
6229.783
 21
709.7716
 31
0.0
  0
LINE
  8
0
 10
6229.783
 20
709.7716
 30
0.0
 11
6289.783
 21
829.7715
 31
0.0
  0
LINE
  8
0
 10
6289.783
 20
829.7715
 30
0.0
 11
6479.783
 21
829.7715
 31
0.0
  0
LINE
  8
0
 10
6479.783
 20
829.7715
 30
0.0
 11
6359.783
 21
709.7716
 31
0.0
  0
LINE
  8
0
 10
6359.783
 20
709.7716
 30
0.0
 11
6359.783
 21
579.7716
 31
0.0
  0
LINE
  8
0
 10
6359.783
 20
579.7716
 30
0.0
 11
6229.783
 21
709.7716
 31
0.0
  0
LINE
  8
0
 10
6229.783
 20
709.7716
 30
0.0
 11
6359.783
 21
579.7716
 31
0.0
  0
LINE
  8
0
 10
6359.783
 20
579.7716
 30
0.0
 11
6489.783
 21
709.7716
 31
0.0
  0
LINE
  8
0
 10
6489.783
 20
709.7716
 30
0.0
 11
6609.783
 21
649.7716
 31
0.0
  0
LINE
  8
0
 10
6609.783
 20
649.7716
 30
0.0
 11
6609.783
 21
459.7716
 31
0.0
  0
LINE
  8
0
 10
6609.783
 20
459.7716
 30
0.0
 11
6489.783
 21
579.7716
 31
0.0
  0
LINE
  8
0
 10
6489.783
 20
579.7716
 30
0.0
 11
6359.783
 21
579.7716
 31
0.0
  0
LINE
  8
0
 10
6359.783
 20
579.7716
 30
0.0
 11
6489.783
 21
449.7716
 31
0.0
  0
LINE
  8
0
 10
6489.783
 20
449.7716
 30
0.0
 11
6429.783
 21
329.7717
 31
0.0
  0
LINE
  8
0
 10
6429.783
 20
329.7717
 30
0.0
 11
6239.783
 21
329.7717
 31
0.0
  0
LINE
  8
0
 10
6239.783
 20
329.7717
 30
0.0
 11
6359.783
 21
449.7716
 31
0.0
  0
LINE
  8
0
 10
6359.783
 20
449.7716
 30
0.0
 11
6359.783
 21
579.7716
 31
0.0
  0
LINE
  8
0
 10
6359.783
 20
579.7716
 30
0.0
 11
6229.783
 21
579.7716
 31
0.0
  0
LINE
  8
0
 10
6229.783
 20
579.7716
 30
0.0
 11
6109.783
 21
699.7716
 31
0.0
  0
LINE
  8
0
 10
6109.783
 20
699.7716
 30
0.0
 11
6109.783
 21
509.7716
 31
0.0
  0
LINE
  8
0
 10
6109.783
 20
509.7716
 30
0.0
 11
6229.783
 21
449.7716
 31
0.0
  0
LINE
  8
0
 10
6229.783
 20
449.7716
 30
0.0
 11
6359.783
 21
579.7716
 31
0.0
  0
LINE
  8
0
 10
6359.783
 20
579.7716
 30
0.0
 11
6229.783
 21
449.7716
 31
0.0
  0
LINE
  8
0
 10
6229.783
 20
449.7716
 30
0.0
 11
5597.771
 21
-182.229
 31
0.0
  0
CIRCLE
  8
0
 10
1000
 20
7000
 30
0.0
 40
100
  0
CIRCLE
  8
0
 10
2500
 20
8000
 30
0.0
 40
100
  0
CIRCLE
  8
0
 10
4000
 20
7000
 30
0.0
 40
100
  0
CIRCLE
  8
0
 10
100
 20
100
 30
0.0
 40
125
  0
CIRCLE
  8
0
 10
200
 20
200
 30
0.0
 40
200
  0
CIRCLE
  8
0
 10
300
 20
300
 30
0.0
 40
200
  0
CIRCLE
  8
0
 10
350
 20
350
 30
0.0
 40
200
  0
CIRCLE
  8
0
 10
360
 20
360
 30
0.0
 40
200
  0
CIRCLE
  8
0
 10
370
 20
370
 30
0.0
 40
200
  0
ENDSEC
  0
EOF
