  0
SECTION
  2
ENTITIES
  0
LINE
  8
0
 10
4421.008
 20
2145.324
 30
0.0
 11
4421.008
 21
1764.324
 31
0.0
  0
LINE
  8
0
 10
4421.008
 20
1764.324
 30
0.0
 11
5183.005
 21
1383.324
 31
0.0
  0
LINE
  8
0
 10
5183.005
 20
1383.324
 30
0.0
 11
5183.005
 21
1002.324
 31
0.0
  0
LINE
  8
0
 10
5183.005
 20
1002.324
 30
0.0
 11
4421.008
 21
621.3246
 31
0.0
  0
CIRCLE
  8
0
 10
1000
 20
7000
 30
0.0
 40
100
  0
CIRCLE
  8
0
 10
2500
 20
8000
 30
0.0
 40
100
  0
CIRCLE
  8
0
 10
4000
 20
7000
 30
0.0
 40
100
  0
CIRCLE
  8
0
 10
100
 20
100
 30
0.0
 40
125
  0
CIRCLE
  8
0
 10
200
 20
200
 30
0.0
 40
200
  0
CIRCLE
  8
0
 10
300
 20
300
 30
0.0
 40
200
  0
CIRCLE
  8
0
 10
350
 20
350
 30
0.0
 40
200
  0
CIRCLE
  8
0
 10
360
 20
360
 30
0.0
 40
200
  0
CIRCLE
  8
0
 10
370
 20
370
 30
0.0
 40
200
  0
ENDSEC
  0
EOF
