  0
SECTION
  2
ENTITIES
  0
ARC
  8
0
 10
5424.368
 20
2779.53
 30
0.0
 40
190.5
 50
180
 51
270
  0
ARC
  8
0
 10
5614.871
 20
2589.03
 30
0.0
 40
190.5
 50
180
 51
270
  0
ARC
  8
0
 10
5614.871
 20
2208.03
 30
0.0
 40
190.5
 50
0
 51
89.99999
  0
ARC
  8
0
 10
5805.369
 20
2017.529
 30
0.0
 40
190.5
 50
0
 51
89.99999
  0
ARC
  8
0
 10
5805.369
 20
2017.529
 30
0.0
 40
190.5
 50
270
 51
360
  0
ARC
  8
0
 10
5614.871
 20
1827.03
 30
0.0
 40
190.5
 50
270
 51
360
  0
ARC
  8
0
 10
5614.871
 20
1446.031
 30
0.0
 40
190.5
 50
89.99999
 51
180
  0
ARC
  8
0
 10
5424.368
 20
1255.53
 30
0.0
 40
190.5
 50
89.99999
 51
180
  0
CIRCLE
  8
0
 10
1000
 20
7000
 30
0.0
 40
100
  0
CIRCLE
  8
0
 10
2500
 20
8000
 30
0.0
 40
100
  0
CIRCLE
  8
0
 10
4000
 20
7000
 30
0.0
 40
100
  0
CIRCLE
  8
0
 10
100
 20
100
 30
0.0
 40
125
  0
CIRCLE
  8
0
 10
200
 20
200
 30
0.0
 40
200
  0
CIRCLE
  8
0
 10
300
 20
300
 30
0.0
 40
200
  0
CIRCLE
  8
0
 10
350
 20
350
 30
0.0
 40
200
  0
CIRCLE
  8
0
 10
360
 20
360
 30
0.0
 40
200
  0
CIRCLE
  8
0
 10
370
 20
370
 30
0.0
 40
200
  0
ENDSEC
  0
EOF
