  0
SECTION
  2
ENTITIES
  0
ARC
  8
0
 10
4927.719
 20
2451.26
 30
0.0
 40
380.9999
 50
180
 51
270
  0
ARC
  8
0
 10
4927.719
 20
1689.259
 30
0.0
 40
380.9999
 50
270
 51
89.99999
  0
ARC
  8
0
 10
4927.719
 20
927.2601
 30
0.0
 40
380.9999
 50
89.99999
 51
180
  0
CIRCLE
  8
0
 10
1000
 20
7000
 30
0.0
 40
100
  0
CIRCLE
  8
0
 10
2500
 20
8000
 30
0.0
 40
100
  0
CIRCLE
  8
0
 10
4000
 20
7000
 30
0.0
 40
100
  0
CIRCLE
  8
0
 10
100
 20
100
 30
0.0
 40
125
  0
CIRCLE
  8
0
 10
200
 20
200
 30
0.0
 40
200
  0
CIRCLE
  8
0
 10
300
 20
300
 30
0.0
 40
200
  0
CIRCLE
  8
0
 10
350
 20
350
 30
0.0
 40
200
  0
CIRCLE
  8
0
 10
360
 20
360
 30
0.0
 40
200
  0
CIRCLE
  8
0
 10
370
 20
370
 30
0.0
 40
200
  0
ENDSEC
  0
EOF
