  0
SECTION
  2
ENTITIES
  0
ARC
  8
0
 10
5296.252
 20
1419.21
 30
0.0
 40
127.0001
 50
89.99999
 51
180
  0
ARC
  8
0
 10
5169.25
 20
911.2092
 30
0.0
 40
508.0003
 50
89.99999
 51
180
  0
ARC
  8
0
 10
4661.251
 20
784.2095
 30
0.0
 40
127.0001
 50
89.99999
 51
180
  0
ARC
  8
0
 10
4534.25
 20
657.21
 30
0.0
 40
127.0001
 50
0
 51
89.99999
  0
ARC
  8
0
 10
4661.251
 20
149.2092
 30
0.0
 40
508.0003
 50
0
 51
89.99999
  0
ARC
  8
0
 10
5169.25
 20
22.20957
 30
0.0
 40
127.0001
 50
0
 51
89.99999
  0
CIRCLE
  8
0
 10
1000
 20
7000
 30
0.0
 40
100
  0
CIRCLE
  8
0
 10
2500
 20
8000
 30
0.0
 40
100
  0
CIRCLE
  8
0
 10
4000
 20
7000
 30
0.0
 40
100
  0
CIRCLE
  8
0
 10
100
 20
100
 30
0.0
 40
125
  0
CIRCLE
  8
0
 10
200
 20
200
 30
0.0
 40
200
  0
CIRCLE
  8
0
 10
300
 20
300
 30
0.0
 40
200
  0
CIRCLE
  8
0
 10
350
 20
350
 30
0.0
 40
200
  0
CIRCLE
  8
0
 10
360
 20
360
 30
0.0
 40
200
  0
CIRCLE
  8
0
 10
370
 20
370
 30
0.0
 40
200
  0
ENDSEC
  0
EOF
