  0
SECTION
  2
ENTITIES
  0
ARC
  8
0
 10
364.545
 20
197.4432
 30
0.0
 40
371.2884
 50
190.9366
 51
272.4635
  0
LINE
  8
0
 10
380.5025
 20
-173.5021
 30
0.0
 11
381.5078
 21
-334.5047
 31
0.0
  0
ARC
  8
0
 10
397.4634
 20
-705.4501
 30
0.0
 40
371.2884
 50
10.93645
 51
92.46303
  0
ARC
  8
0
 10
397.4655
 20
-564.5576
 30
0.0
 40
371.2884
 50
267.5354
 51
349.0619
  0
LINE
  8
0
 10
381.4988
 20
-935.5025
 30
0.0
 11
380.4888
 21
-1096.505
 31
0.0
  0
ARC
  8
0
 10
364.5201
 20
-1467.45
 30
0.0
 40
371.2884
 50
87.53506
 51
169.0619
  0
CIRCLE
  8
0
 10
1000
 20
7000
 30
0.0
 40
100
  0
CIRCLE
  8
0
 10
2500
 20
8000
 30
0.0
 40
100
  0
CIRCLE
  8
0
 10
4000
 20
7000
 30
0.0
 40
100
  0
CIRCLE
  8
0
 10
100
 20
100
 30
0.0
 40
127
  0
CIRCLE
  8
0
 10
200
 20
200
 30
0.0
 40
200
  0
CIRCLE
  8
0
 10
300
 20
300
 30
0.0
 40
200
  0
CIRCLE
  8
0
 10
350
 20
350
 30
0.0
 40
200
  0
CIRCLE
  8
0
 10
360
 20
360
 30
0.0
 40
200
  0
CIRCLE
  8
0
 10
370
 20
370
 30
0.0
 40
200
  0
ENDSEC
  0
EOF
