  0
SECTION
  2
ENTITIES
  0
ARC
  8
0
 10
-28.68791
 20
951.3491
 30
0.0
 40
29.62843
 50
211.3127
 51
345.5179
  0
LINE
  8
0
 10
-54.0008
 20
935.9509
 30
0.0
 11
-118.2918
 21
1005.343
 31
0.0
  0
ARC
  8
0
 10
-173.2693
 20
960.3735
 30
0.0
 40
71.02674
 50
39.28244
 51
177.9977
  0
ARC
  8
0
 10
-168.4783
 20
965.0743
 30
0.0
 40
75.80717
 50
181.6775
 51
249.7573
  0
ARC
  8
0
 10
-168.4783
 20
822.8245
 30
0.0
 40
75.80717
 50
110.2429
 51
178.3226
  0
ARC
  8
0
 10
-173.2693
 20
827.5251
 30
0.0
 40
71.02674
 50
182.0024
 51
320.7178
  0
LINE
  8
0
 10
-118.2918
 20
782.5555
 30
0.0
 11
-54.0008
 21
851.9478
 31
0.0
  0
ARC
  8
0
 10
-28.68791
 20
836.5497
 30
0.0
 40
29.62843
 50
14.48212
 51
148.6874
  0
ARC
  8
0
 10
385.6086
 20
903.032
 30
0.0
 40
390.1081
 50
188.7098
 51
269.3238
  0
ARC
  8
0
 10
376.3942
 20
122.8701
 30
0.0
 40
390.1081
 50
8.708994
 51
89.32304
  0
ARC
  8
0
 10
790.6915
 20
189.3475
 30
0.0
 40
29.62843
 50
194.4813
 51
328.6869
  0
LINE
  8
0
 10
816.0043
 20
173.9492
 30
0.0
 11
880.2961
 21
243.3407
 31
0.0
  0
ARC
  8
0
 10
935.2731
 20
198.3705
 30
0.0
 40
71.02674
 50
2.001623
 51
140.7173
  0
ARC
  8
0
 10
930.4821
 20
203.0712
 30
0.0
 40
75.80717
 50
290.2424
 51
358.3221
  0
ARC
  8
0
 10
930.4813
 20
60.82111
 30
0.0
 40
75.80717
 50
1.677434
 51
69.7572
  0
ARC
  8
0
 10
935.2722
 20
65.52185
 30
0.0
 40
71.02674
 50
219.2821
 51
357.9977
  0
LINE
  8
0
 10
880.2947
 20
20.55223
 30
0.0
 11
816.0038
 21
89.94463
 31
0.0
  0
ARC
  8
0
 10
790.6909
 20
74.54651
 30
0.0
 40
29.62843
 50
31.31258
 51
165.5181
  0
ARC
  8
0
 10
376.3943
 20
141.029
 30
0.0
 40
390.1081
 50
270.6762
 51
351.2903
  0
ARC
  8
0
 10
385.6086
 20
-639.1345
 30
0.0
 40
390.1081
 50
90.67625
 51
171.2903
  0
CIRCLE
  8
0
 10
1000
 20
7000
 30
0.0
 40
100
  0
CIRCLE
  8
0
 10
2500
 20
8000
 30
0.0
 40
100
  0
CIRCLE
  8
0
 10
4000
 20
7000
 30
0.0
 40
100
  0
CIRCLE
  8
0
 10
100
 20
100
 30
0.0
 40
125
  0
CIRCLE
  8
0
 10
200
 20
200
 30
0.0
 40
200
  0
CIRCLE
  8
0
 10
300
 20
300
 30
0.0
 40
200
  0
CIRCLE
  8
0
 10
350
 20
350
 30
0.0
 40
200
  0
CIRCLE
  8
0
 10
360
 20
360
 30
0.0
 40
200
  0
CIRCLE
  8
0
 10
370
 20
370
 30
0.0
 40
200
  0
ENDSEC
  0
EOF
