  0
SECTION
  2
ENTITIES
  0
ARC
  8
0
 10
2421.98
 20
1479.73
 30
0.0
 40
669.8865
 50
129.0449
 51
148.3206
  0
ARC
  8
0
 10
2025.65
 20
1724.31
 30
0.0
 40
204.161
 50
148.3202
 51
163.5836
  0
ARC
  8
0
 10
1812.12
 20
2070.44
 30
0.0
 40
288.9719
 50
273.5098
 51
299.11
  0
ARC
  8
0
 10
1999
 20
1734.82
 30
0.0
 40
95.17153
 50
4.139662
 51
119.1102
  0
ARC
  8
0
 10
2024.87
 20
1602.46
 30
0.0
 40
155.412
 50
63.62128
 51
94.38794
  0
ARC
  8
0
 10
2040.58
 20
1397.88
 30
0.0
 40
360.5879
 50
94.38982
 51
106.1733
  0
ARC
  8
0
 10
1911.88
 20
1841.63
 30
0.0
 40
101.4458
 50
215.9968
 51
286.1752
  0
ARC
  8
0
 10
2030.32
 20
1625.59
 30
0.0
 40
254.3059
 50
104.6904
 51
142.0419
  0
ARC
  8
0
 10
1992.52
 20
1769.79
 30
0.0
 40
105.231
 50
344.5111
 51
104.6926
  0
ARC
  8
0
 10
1999
 20
1734.82
 30
0.0
 40
95.16833
 50
4.139662
 51
119.1102
  0
ARC
  8
0
 10
1812.12
 20
2070.44
 30
0.0
 40
288.9702
 50
273.5098
 51
299.11
  0
ARC
  8
0
 10
2184.37
 20
1638.41
 30
0.0
 40
382.5359
 50
157.9517
 51
189.2834
  0
ARC
  8
0
 10
2036.32
 20
1149.35
 30
0.0
 40
485.066
 50
118.2351
 51
132.2628
  0
ARC
  8
0
 10
1607.36
 20
1616.47
 30
0.0
 40
149.1636
 50
224.3945
 51
313.5333
  0
ARC
  8
0
 10
1561.141
 20
1320.57
 30
0.0
 40
200.8351
 50
107.4904
 51
147.7455
  0
ARC
  8
0
 10
1527.901
 20
1340.74
 30
0.0
 40
161.9577
 50
147.5042
 51
180.1275
  0
ARC
  8
0
 10
1633.811
 20
1443.89
 30
0.0
 40
287.1736
 50
183.5458
 51
201.1276
  0
ARC
  8
0
 10
1430.351
 20
1431.28
 30
0.0
 40
83.31935
 50
119.2784
 51
183.5439
  0
ARC
  8
0
 10
1453.801
 20
1390.8
 30
0.0
 40
130.1031
 50
68.83159
 51
119.568
  0
ARC
  8
0
 10
1375.441
 20
1515.11
 30
0.0
 40
125.3756
 50
291.6955
 51
358.6337
  0
ARC
  8
0
 10
1457.741
 20
1308.24
 30
0.0
 40
97.25809
 50
111.6931
 51
160.7045
  0
ARC
  8
0
 10
1527.901
 20
1340.74
 30
0.0
 40
161.9604
 50
147.5042
 51
180.1275
  0
ARC
  8
0
 10
1562.661
 20
1318.6
 30
0.0
 40
203.1698
 50
107.7322
 51
147.5044
  0
ARC
  8
0
 10
1431.411
 20
1869.96
 30
0.0
 40
364.5019
 50
280.9713
 51
309.9877
  0
ARC
  8
0
 10
1418.701
 20
1553.14
 30
0.0
 40
249.787
 50
8.643637
 51
48.11904
  0
ARC
  8
0
 10
1425.151
 20
1776.99
 30
0.0
 40
164.7149
 50
275.8683
 51
346.7047
  0
ARC
  8
0
 10
1620.151
 20
1877.15
 30
0.0
 40
318.5001
 50
225.1451
 51
235.9877
  0
ARC
  8
0
 10
1219.471
 20
1793.69
 30
0.0
 40
226.3738
 50
321.0463
 51
359.737
  0
ARC
  8
0
 10
1167.971
 20
850.7899
 30
0.0
 40
981.9939
 50
64.7719
 51
73.56279
  0
ARC
  8
0
 10
1425.221
 20
1776.97
 30
0.0
 40
165.6814
 50
335.4183
 51
346.7944
  0
ARC
  8
0
 10
1573.721
 20
1924.03
 30
0.0
 40
215.5535
 50
256.9703
 51
270.3244
  0
ARC
  8
0
 10
1513.361
 20
1663.17
 30
0.0
 40
52.19212
 50
76.97826
 51
231.9009
  0
ARC
  8
0
 10
1422.311
 20
1789.41
 30
0.0
 40
177.3644
 50
276.3706
 51
289.3749
  0
ARC
  8
0
 10
1806.871
 20
1759.36
 30
0.0
 40
393.0874
 50
201.8378
 51
218.86
  0
ARC
  8
0
 10
1360.091
 20
1239.48
 30
0.0
 40
307.3423
 50
62.75714
 51
82.42417
  0
ARC
  8
0
 10
1412.571
 20
1637.76
 30
0.0
 40
94.38084
 50
199.7348
 51
262.7201
  0
ARC
  8
0
 10
1452.671
 20
1652.15
 30
0.0
 40
136.9873
 50
170.139
 51
199.7367
  0
ARC
  8
0
 10
1201.521
 20
1695.8
 30
0.0
 40
117.9312
 50
350.1425
 51
27.79927
  0
ARC
  8
0
 10
1410.561
 20
1043.8
 30
0.0
 40
714.7134
 50
87.40099
 51
98.42534
  0
ARC
  8
0
 10
1410.561
 20
1043.8
 30
0.0
 40
714.7152
 50
87.40099
 51
91.72866
  0
ARC
  8
0
 10
1480.741
 20
1777.65
 30
0.0
 40
93.78121
 50
146.9844
 51
191.9762
  0
ARC
  8
0
 10
1355.241
 20
1875.17
 30
0.0
 40
65.95968
 50
315.2704
 51
14.8474
  0
ARC
  8
0
 10
1467.721
 20
1981.8
 30
0.0
 40
102.1082
 50
241.495
 51
273.189
  0
ARC
  8
0
 10
1478.231
 20
1793.01
 30
0.0
 40
86.97418
 50
48.86489
 51
93.18353
  0
ARC
  8
0
 10
1664.811
 20
1837.31
 30
0.0
 40
131.0955
 50
84.40121
 51
170.6937
  0
ARC
  8
0
 10
1731.191
 20
1924.37
 30
0.0
 40
68.96605
 50
140.9912
 51
202.4526
  0
ARC
  8
0
 10
1663.491
 20
1671.02
 30
0.0
 40
227.0445
 50
89.00069
 51
149.595
  0
ARC
  8
0
 10
1663.491
 20
1671.02
 30
0.0
 40
227.0458
 50
89.00069
 51
149.595
  0
ARC
  8
0
 10
1990.471
 20
1939.72
 30
0.0
 40
325.6992
 50
187.3542
 51
201.1436
  0
ARC
  8
0
 10
1543.381
 20
1766.8
 30
0.0
 40
153.6692
 50
312.558
 51
21.14779
  0
ARC
  8
0
 10
1543.381
 20
1766.8
 30
0.0
 40
153.6667
 50
312.558
 51
359.9033
  0
ARC
  8
0
 10
1673.151
 20
1676.11
 30
0.0
 40
93.53505
 50
2.322464
 51
75.19566
  0
ARC
  8
0
 10
1871.841
 20
1661.49
 30
0.0
 40
106.8381
 50
170.0775
 51
232.5263
  0
ARC
  8
0
 10
2110.501
 20
1638.18
 30
0.0
 40
309.8213
 50
191.4457
 51
217.2758
  0
ARC
  8
0
 10
2859.491
 20
708.2298
 30
0.0
 40
1241.807
 50
143.29
 51
148.4417
  0
ARC
  8
0
 10
1890.341
 20
1303.48
 30
0.0
 40
104.4501
 50
148.4389
 51
194.9704
  0
ARC
  8
0
 10
1894.421
 20
1232.29
 30
0.0
 40
113.9092
 50
124.2314
 51
157.1628
  0
ARC
  8
0
 10
1774.771
 20
1408.12
 30
0.0
 40
98.76611
 50
304.2389
 51
25.43391
  0
ARC
  8
0
 10
1861.551
 20
1352.86
 30
0.0
 40
97.71003
 50
88.58083
 51
156.5966
  0
ARC
  8
0
 10
1961.441
 20
1309.61
 30
0.0
 40
206.5595
 50
156.5924
 51
165.9208
  0
ARC
  8
0
 10
1839.771
 20
1340.12
 30
0.0
 40
81.12825
 50
165.9176
 51
231.6525
  0
ARC
  8
0
 10
1893.541
 20
1303.02
 30
0.0
 40
107.4249
 50
149.1232
 51
194.2925
  0
ARC
  8
0
 10
2859.491
 20
708.2297
 30
0.0
 40
1241.804
 50
143.29
 51
148.4417
  0
ARC
  8
0
 10
1252.841
 20
697.6396
 30
0.0
 40
969.7104
 50
33.1711
 51
50.93375
  0
ARC
  8
0
 10
1707.131
 20
1036.09
 30
0.0
 40
405.7646
 50
351.3425
 51
28.26023
  0
ARC
  8
0
 10
1781.751
 20
545.0397
 30
0.0
 40
539.8977
 50
41.43554
 51
52.78694
  0
ARC
  8
0
 10
2308.231
 20
1009.77
 30
0.0
 40
162.3549
 50
221.4344
 51
310.4713
  0
ARC
  8
0
 10
1902.251
 20
114.0397
 30
0.0
 40
926.1818
 50
48.79753
 51
56.48773
  0
ARC
  8
0
 10
2400.881
 20
699.9797
 30
0.0
 40
157.2469
 50
13.57937
 51
44.85575
  0
ARC
  8
0
 10
2467.491
 20
779.7097
 30
0.0
 40
96.28101
 50
333.6001
 51
54.15386
  0
ARC
  8
0
 10
2432.931
 20
733.5297
 30
0.0
 40
153.9503
 50
53.79265
 51
97.20953
  0
ARC
  8
0
 10
2560.241
 20
867.5697
 30
0.0
 40
147.8162
 50
172.7361
 51
206.4248
  0
ARC
  8
0
 10
2494.641
 20
834.9697
 30
0.0
 40
74.55969
 50
206.4243
 51
268.5094
  0
ARC
  8
0
 10
2490.151
 20
662.8897
 30
0.0
 40
97.5733
 50
49.33883
 51
88.50251
  0
ARC
  8
0
 10
2400.881
 20
699.9797
 30
0.0
 40
157.2481
 50
13.58289
 51
44.85569
  0
ARC
  8
0
 10
1902.251
 20
114.0397
 30
0.0
 40
926.1867
 50
48.79753
 51
56.48773
  0
ARC
  8
0
 10
2483.431
 20
1288.19
 30
0.0
 40
407.9493
 50
233.7166
 51
260.1455
  0
ARC
  8
0
 10
2683.971
 20
816.1597
 30
0.0
 40
464.5741
 50
141.9967
 51
162.0495
  0
ARC
  8
0
 10
3315.991
 20
2335.87
 30
0.0
 40
1586.86
 50
231.0258
 51
238.4359
  0
ARC
  8
0
 10
2443.781
 20
1049.97
 30
0.0
 40
78.15597
 50
302.1245
 51
30.4432
  0
ARC
  8
0
 10
2611.611
 20
1148.6
 30
0.0
 40
116.5107
 50
166.2107
 51
210.441
  0
ARC
  8
0
 10
2477.441
 20
1074.36
 30
0.0
 40
104.1532
 50
78.35674
 51
114.7172
  0
ARC
  8
0
 10
2569.011
 20
875.4397
 30
0.0
 40
323.1366
 50
114.7179
 51
137.7582
  0
ARC
  8
0
 10
3315.991
 20
2335.87
 30
0.0
 40
1586.864
 50
231.576
 51
232.9394
  0
ARC
  8
0
 10
2456.271
 20
867.2097
 30
0.0
 40
224.2342
 50
94.91969
 51
115.5241
  0
ARC
  8
0
 10
2439.921
 20
1057.14
 30
0.0
 40
33.60361
 50
342.7357
 51
94.91643
  0
ARC
  8
0
 10
2407.411
 20
1067.24
 30
0.0
 40
67.6364
 50
302.5273
 51
342.7387
  0
ARC
  8
0
 10
3315.991
 20
2335.87
 30
0.0
 40
1586.86
 50
236.6575
 51
238.4359
  0
ARC
  8
0
 10
2233.111
 20
1094.17
 30
0.0
 40
275.3287
 50
310.9635
 51
336.3633
  0
ARC
  8
0
 10
2327.491
 20
1487.19
 30
0.0
 40
607.0696
 50
278.1558
 51
292.1488
  0
ARC
  8
0
 10
2524.221
 20
1009.65
 30
0.0
 40
90.62087
 50
290.773
 51
350.9079
  0
ARC
  8
0
 10
1969.251
 20
1067.58
 30
0.0
 40
648.4873
 50
353.6034
 51
5.343378
  0
ARC
  8
0
 10
2657.051
 20
1351.29
 30
0.0
 40
227.2593
 50
249.4208
 51
259.3167
  0
ARC
  8
0
 10
2527.141
 20
1056.31
 30
0.0
 40
96.25369
 50
58.68307
 51
109.4385
  0
ARC
  8
0
 10
2543.101
 20
961.5897
 30
0.0
 40
191.5877
 50
94.62233
 51
104.5063
  0
ARC
  8
0
 10
2525.001
 20
1185.54
 30
0.0
 40
33.08707
 50
274.6112
 51
41.10294
  0
ARC
  8
0
 10
2606.631
 20
1256.75
 30
0.0
 40
75.24076
 50
204.2216
 51
221.0987
  0
ARC
  8
0
 10
2607.231
 20
1257.02
 30
0.0
 40
75.90194
 50
158.0515
 51
204.2217
  0
ARC
  8
0
 10
2475.921
 20
1439.62
 30
0.0
 40
165.8219
 50
265.7462
 51
291.5506
  0
ARC
  8
0
 10
2456.441
 20
1177.74
 30
0.0
 40
96.78671
 50
85.74577
 51
135.9504
  0
ARC
  8
0
 10
2307.241
 20
1264.04
 30
0.0
 40
81.8773
 50
346.5749
 51
53.70258
  0
ARC
  8
0
 10
2272.161
 20
1216.27
 30
0.0
 40
141.1451
 50
53.70494
 51
96.31738
  0
ARC
  8
0
 10
1902.571
 20
1179.56
 30
0.0
 40
395.8333
 50
16.38204
 51
26.55989
  0
ARC
  8
0
 10
2471.181
 20
1621.12
 30
0.0
 40
380.1468
 50
240.2129
 51
252.0781
  0
ARC
  8
0
 10
2323.031
 20
1144.32
 30
0.0
 40
119.2458
 50
13.04219
 51
74.84737
  0
ARC
  8
0
 10
2323.031
 20
1144.32
 30
0.0
 40
119.246
 50
13.04219
 51
74.84737
  0
ARC
  8
0
 10
2471.181
 20
1621.12
 30
0.0
 40
380.1462
 50
240.2128
 51
252.0781
  0
ARC
  8
0
 10
2020.031
 20
1366.33
 30
0.0
 40
272.8476
 50
324.7374
 51
344.017
  0
ARC
  8
0
 10
2368.151
 20
1132.44
 30
0.0
 40
146.7737
 50
148.6461
 51
227.3553
  0
ARC
  8
0
 10
2367.211
 20
1131.86
 30
0.0
 40
145.7077
 50
164.7677
 51
227.4728
  0
ARC
  8
0
 10
2273.641
 20
1063.43
 30
0.0
 40
116.606
 50
113.7755
 51
181.2334
  0
ARC
  8
0
 10
1998.911
 20
1093.92
 30
0.0
 40
161.5465
 50
312.6045
 51
348.2131
  0
ARC
  8
0
 10
1836.161
 20
1018.52
 30
0.0
 40
275.5666
 50
326.8493
 51
350.9156
  0
ARC
  8
0
 10
1871.441
 20
764.8597
 30
0.0
 40
220.8975
 50
27.78431
 51
72.68892
  0
ARC
  8
0
 10
1145.291
 20
569.1598
 30
0.0
 40
890.1625
 50
22.048
 51
27.17821
  0
ARC
  8
0
 10
2039.431
 20
942.2098
 30
0.0
 40
79.27958
 50
209.3847
 51
290.25
  0
ARC
  8
0
 10
1935.721
 20
894.3698
 30
0.0
 40
133.8084
 50
348.5601
 51
13.62917
  0
ARC
  8
0
 10
2010.201
 20
920.4298
 30
0.0
 40
55.82867
 50
5.622739
 51
84.2016
  0
ARC
  8
0
 10
1977.581
 20
598.9998
 30
0.0
 40
378.9066
 50
84.20474
 51
96.12216
  0
ARC
  8
0
 10
1871.441
 20
764.8598
 30
0.0
 40
220.896
 50
27.78431
 51
72.68892
  0
ARC
  8
0
 10
1805.941
 20
1034.86
 30
0.0
 40
309.812
 50
308.783
 51
327.3755
  0
CIRCLE
  8
0
 10
1000
 20
7000
 30
0.0
 40
100
  0
CIRCLE
  8
0
 10
3000
 20
7000
 30
0.0
 40
100
  0
CIRCLE
  8
0
 10
100
 20
100
 30
0.0
 40
125
  0
CIRCLE
  8
0
 10
200
 20
200
 30
0.0
 40
200
  0
CIRCLE
  8
0
 10
300
 20
300
 30
0.0
 40
200
  0
CIRCLE
  8
0
 10
350
 20
350
 30
0.0
 40
200
  0
CIRCLE
  8
0
 10
360
 20
360
 30
0.0
 40
200
  0
CIRCLE
  8
0
 10
370
 20
370
 30
0.0
 40
200
  0
ENDSEC
  0
EOF
