  0
SECTION
  2
ENTITIES
  0
ARC
  8
0
 10
5317.877
 20
1627.563
 30
0.0
 40
220.7962
 50
39.85409
 51
140.1459
  0
ARC
  8
0
 10
5063.877
 20
1891.485
 30
0.0
 40
148.76
 50
235.3869
 51
304.6131
  0
ARC
  8
0
 10
5148.877
 20
1910.555
 30
0.0
 40
220.7962
 50
219.8541
 51
320.1459
  0
ARC
  8
0
 10
5402.877
 20
1646.623
 30
0.0
 40
148.76
 50
55.38694
 51
124.613
  0
ARC
  8
0
 10
5345.885
 20
1599.554
 30
0.0
 40
220.7962
 50
309.8541
 51
50.14591
  0
ARC
  8
0
 10
5609.807
 20
1345.554
 30
0.0
 40
148.76
 50
145.3869
 51
214.6131
  0
CIRCLE
  8
0
 10
1000
 20
7000
 30
0.0
 40
100
  0
CIRCLE
  8
0
 10
2000
 20
7000
 30
0.0
 40
100
  0
CIRCLE
  8
0
 10
3000
 20
7000
 30
0.0
 40
100
  0
CIRCLE
  8
0
 10
4000
 20
7000
 30
0.0
 40
100
  0
CIRCLE
  8
0
 10
100
 20
100
 30
0.0
 40
125
  0
CIRCLE
  8
0
 10
200
 20
200
 30
0.0
 40
200
  0
CIRCLE
  8
0
 10
300
 20
300
 30
0.0
 40
200
  0
CIRCLE
  8
0
 10
350
 20
350
 30
0.0
 40
200
  0
CIRCLE
  8
0
 10
360
 20
360
 30
0.0
 40
200
  0
CIRCLE
  8
0
 10
370
 20
370
 30
0.0
 40
200
  0
ENDSEC
  0
EOF
