  0
SECTION
  2
ENTITIES
  0
ARC
  8
0
 10
103.9899
 20
48.41017
 30
0.0
 40
256.4019
 50
90.53376
 51
179.4655
  0
ARC
  8
0
 10
103.99
 20
53.18924
 30
0.0
 40
256.4019
 50
180.5338
 51
269.4656
  0
ARC
  8
0
 10
99.21031
 20
53.18925
 30
0.0
 40
256.4019
 50
270.5343
 51
359.4661
  0
ARC
  8
0
 10
99.21033
 20
48.41018
 30
0.0
 40
256.4019
 50
.5340729
 51
89.46583
  0
ARC
  8
0
 10
357.9917
 20
307.1895
 30
0.0
 40
256.4019
 50
180.5338
 51
269.4655
  0
ARC
  8
0
 10
357.9882
 20
-205.5919
 30
0.0
 40
256.4019
 50
90.53381
 51
179.4656
  0
ARC
  8
0
 10
-154.7897
 20
-205.5901
 30
0.0
 40
256.4019
 50
.5341718
 51
89.46593
  0
ARC
  8
0
 10
-154.7897
 20
307.1913
 30
0.0
 40
256.4019
 50
270.5342
 51
359.466
  0
LINE
  8
0
 10
101.601
 20
304.8003
 30
0.0
 11
101.6003
 21
50.8004
 31
0.0
  0
ARC
  8
0
 10
152.4005
 20
50.80015
 30
0.0
 40
50.80015
 50
180
 51
360
  0
ARC
  8
0
 10
152.4005
 20
50.80015
 30
0.0
 40
50.80015
 50
1.445635E-04
 51
180
  0
ARC
  8
0
 10
50.80015
 20
50.80015
 30
0.0
 40
50.80015
 50
180.0002
 51
0
  0
ARC
  8
0
 10
50.80015
 20
50.80015
 30
0.0
 40
50.80015
 50
0
 51
180
  0
LINE
  8
0
 10
101.6003
 20
50.8004
 30
0.0
 11
101.601
 21
-203.1997
 31
0.0
  0
CIRCLE
  8
0
 10
1000
 20
7000
 30
0.0
 40
100
  0
CIRCLE
  8
0
 10
2000
 20
7000
 30
0.0
 40
100
  0
CIRCLE
  8
0
 10
3000
 20
7000
 30
0.0
 40
100
  0
CIRCLE
  8
0
 10
100
 20
100
 30
0.0
 40
130
  0
CIRCLE
  8
0
 10
200
 20
200
 30
0.0
 40
200
  0
CIRCLE
  8
0
 10
300
 20
300
 30
0.0
 40
200
  0
CIRCLE
  8
0
 10
350
 20
350
 30
0.0
 40
200
  0
CIRCLE
  8
0
 10
360
 20
360
 30
0.0
 40
200
  0
CIRCLE
  8
0
 10
370
 20
370
 30
0.0
 40
200
  0
ENDSEC
  0
EOF
